Gibonni

Divlji Cvit

by: Lubik

Pronađi akord!

Ne znaš kako odsvirati neki od akorda pjesmi Divlji Cvit? Upiši akord u tražilicu i saznaj!

Traženi akord će se prikazati ovdje

Od istog izvođača

Pregledano 4833 puta
Pregledano 19620 puta
Pregledano 18767 puta
Pregledano 95796 puta
Pregledano 20801 puta
Trebaš ritam za ovu pjesmu? Pronađi ga ovdje
Akordi/Tabovi:
E -------------5h6h8----8b(10)8--6--8--8/13--13-12h13-12-10--8---12-8--------------------------------------------
H ---8p6p5h6----------------------------------------------------------11p10h11p10---8/6-8/10~-8~-8h10p8/6--------
G ---------------------------------------------------------------------------------------------------------------
D ---------------------------------------------------------------------------------------------------------------
A ---------------------------------------------------------------------------------------------------------------
E ---------------------------------------------------------------------------------------------------------------


E ---13-13-12h13p12--10--8~--12h13h15--15/20--18-17-15------------------------------------------------------------
H ----------------------------------------------------/18---------------------------------------------------------
G ----------------------------------------------------------------------------------------------------------------
D ----------------------------------------------------------------------------------------------------------------
A ----------------------------------------------------------------------------------------------------------------
E ----------------------------------------------------------------------------------------------------------------







F               C      Dm     B      F
Nije mi potriba sad ka sempja gubiti mir
           B       C       Dm    B          F
jer ja san proguca kost za jubav nimam lipu ric
              Dm     B                     F
i zali Boze i trud i ludu glavu s kojom ne mislim
         Dm     C     B                  C
ko me je natira da je probam, da je vako zavolim
               F
da je vako zavolim

F B, F       B        F  C   F
U sr-ce me potocaj ka di-vji cvit
F  C   F       B      F A   Dm
pu-sti dazd iz oka da o-kri-pi
   B       F  C     F
tu naciklu ju-bav u meni

B                     Dm
A da je coviku bit ka raspa
G         B    C     B
i da je u dusi zal i grub
            F              C
ja ne bi se da do kraja, a-a
  B          C         B
i ne bi vako ginija za nju

B                     Dm
A da je coviku bit ka raspa
G           B    C    B
da nista ne cuti ka i zvir
            F              C
ja ne bi se da do kraja, a-a
      B                   F
ko me tira da je vako zavolim,
      C                   F
ko me tira da je vako zavolim
Komentari

Lubik kaže:

Solo se malo pomerio...



E -------------5h6h8----8b(10)8--6--8--8/13--13-12h13-12-10--8---12-8------
H ---8p6p5h6---------------------------------------------------------------
G -------------------------------------------------------------------------
D -------------------------------------------------------------------------
A -------------------------------------------------------------------------
E -------------------------------------------------------------------------

E --------------------------------------------------------------------------
H -11p10h11p10---8/6-8/10~-8~-8h10p8/6--------------------------------------
G --------------------------------------------------------------------------
D --------------------------------------------------------------------------
A --------------------------------------------------------------------------
E---------------------------------------------------------------------------



E ---13-13-12h13p12--10--8~--12h13h15--15/20--18-17-15---------------------
H ----------------------------------------------------/18------------------
G -------------------------------------------------------------------------
D -------------------------------------------------------------------------
A -------------------------------------------------------------------------
E -------------------------------------------------------------------------

29-12-2010 14:33