ZADNJE NA FORUMU
  • gibson: Play authentic!

    Komentirao: Glam Boogie

    Datum: 23-10 23:33

    Odgovora: 16

    Pogleda: 693

  • Relax don do it...

    Komentirao: Glam Boogie

    Datum: 23-10 22:43

    Odgovora: 4613

    Pogleda: 666662

  • Koje gitare imate - 2018

    Komentirao: Glam Boogie

    Datum: 23-10 14:22

    Odgovora: 367

    Pogleda: 22707

  • Opasan lick

    • Datum:   19-12-2010 14:49
    • Autor:   anakonda
    • Ispiši   Stranicu
    Tabovi:
    Akordi/Tabovi:
    ------------------------------------------------------------------------------
    ---------------------6-8------------------------------------------------------
    -----------------5-7-----7-5--------------------------------------------------
    -----------3-5/7-------------7/5-3--------------------------------------------
    -------3-5-------------------------5-3-------------3-5-3-----5-8-5------8-10--
    -1p3/5---------------------------------5-4-3-1-1/5-------5/8-------8/10-------
                                                                                 

    ------------------------------------------------------------------------------
    ------------------------------------------------------------------------------
    ------------------------------------------------------------------------------
    ------------------------------------------------------------------------------
    -10b11-12-8-------------------------------------------------------------------
    ------------------------------------------------------------------------------


    Snimak: http://www.box.net/shared/7xdfzbmdqo

    Slični tekstovi

    Pregledano 6584 puta
    Pregledano 4882 puta
    Pregledano 14525 puta
    Pregledano 6930 puta
    Pregledano 4353 puta

    » 0 komentara... Dodaj svoj!

    Još nema komentara