Crvena Jabuka

Volio Bih Da Si Tu Verzija 3

by: Space

Pronađi akord!

Ne znaš kako odsvirati neki od akorda pjesmi Volio Bih Da Si Tu Verzija 3? Upiši akord u tražilicu i saznaj!

Traženi akord će se prikazati ovdje

Od istog izvođača

Pregledano 20977 puta
Pregledano 53369 puta
Pregledano 6096 puta
Pregledano 11773 puta
Pregledano 51697 puta
Trebaš ritam za ovu pjesmu? Pronađi ga ovdje
Akordi/Tabovi:
E|--------------------------------------------------------------------------|
H|--------------------------------------------------------------------------|
G|------------------9--9-7------------------------------9-7-----------------|
D|----------10-9-10--------10-9--10-9-----------10-9-10-----10--9---9--10-9-|
A|-7-9-10------------------------------7-9-10-------------------------------|
E|--------------------------------------------------------------------------|

E--------------------------------------------------------|
H--------------------------------------------------------|
G--9-7---------------------------------------------------|
D------10-9----9-10-9------------------------------------|
A----------------------10-9-7--9-10-9--9-10-12--10-9-7---|
E--------------------------------------------------------|

Em
Volio bih da si tu
    D                Em
ove noci tako trebas mi
Am          Em 
kao more mornaru
        H              Em
nemam s kim nadu dijeliti
      H          Em
dijeliti i sacuvati

Volio bih da si tu
nocni program je na radiju
pustaju neku dragu muziku
moje misli tebi putuju
putuju da te pronađu

Am    D        G   Em
Nocas zvijezde padace
Am       D    G    Em
jedna od njih nasa je
D          Em
jedna nosi utjehu
      H
k'o u snu
                Em
volio bih da si tu

Volio bih da si tu
ove noci da pricas mi
slavili bi do zore
svu bi njeznost svijeta popili
popili pa se ljubili
Komentari

more-st kaže:

umjesto H ja bi H7

02-11-2010 07:48

vuka21 kaže:

tocno umisto H ide H7

23-12-2010 16:00

kinez93 kaže:

U solu ti fale dva tona

Izmedju 23. i 24. tona (izmedju D|--9---9--|) fali "A" (D|---9-8-9--|) i
Izmedju 30. i 31. tona (izmedju D|--9---9--|) Opet "A" (D|--9-8---9-10-9....)

Eto :)

Ostalo je uredu :)

09-06-2012 03:13