»Škola gitare - Pocetnici - 17. Vježbe Za Mali Prst - Vježbe za mali prst
»3 vježbe za snagu malog prsta
  https://www.gitare.info/page.php?id=17624

Autor: 7string, Dodano: 11-10-2010 17:16.
Akordi/Tabovi:
1. obavezan hammer on i pull off! :D

ponoviti par puta, uzet kratki predah pa ponoviti

----15p14h15p14-----------------
----------------15p12-----------
--------------------------------
--------------------------------
--------------------------------
--------------------------------


2. koristi se slide sa malim prstom!

----12h15h19/20/19p15p12h15h19/20/19p15p12---
---------------------------------------------
---------------------------------------------
---------------------------------------------
---------------------------------------------
---------------------------------------------

3. koristiti samo 3. i 4. prst!

--------------------------------------4---4-5-4--4---------------
------------------------------4---4-5---5-------5--5-4---4-------
----------------------4---4-5---5----------------------5---5-4---
--------------4---4-5---5--------------------------------------5v*
------4---4-5---5------------------------------------------------
--4-5---5--------------------------------------------------------

*v - vibrato

Preuzeto sa: Gitare.Info