Neda Ukraden

Neda Ukraden - Da se nađemo na pola puta (verzija sa solom)

by: Masterxone

Pronađi akord!

Ne znaš kako odsvirati neki od akorda pjesmi Neda Ukraden - Da se nađemo na pola puta (verzija sa solom)? Upiši akord u tražilicu i saznaj!

Traženi akord će se prikazati ovdje

Od istog izvođača

Pregledano 5747 puta
Pregledano 1607 puta
Pregledano 5716 puta
Pregledano 17621 puta
Pregledano 34792 puta
Trebaš ritam za ovu pjesmu? Pronađi ga ovdje
Akordi/Tabovi:
Ovo mi je tek drugi tab koji pišem pa mi nemojte zamjeriti što nije baš sve lijepo ali sve ovo
što sam postavio je tačno. Svira se pod overdrive-om četiri puta. (uostalom poslušajte pjesmu
pa ćete lako uhvatiti ritam.

SOLO:
e----------------------------------------------------------------|
H---------------------------8-8--b7-----0-3-5-7-5-2-2-2-2h3-2p0--|
G--4--6--7--6--4--0--2-------------------------------------------|
D----------------------------------------------------------------|
A----------------------------------------------------------------|
E----------------------------------------------------------------|x4

Tekst i akordi: (eto čisto da ih dodam)
Strofa
Dm             
Opet si digao nos

B
i opet spavaš sam

F
a znam da želis me
C               Dm
i da te želim ja

Isto važi i ta ostale strofe.

Refren:

Dm             B   
Da se nademo na pola puta
F              C
na pola prkosa i pola ponosa
Dm                B
do neba fališ mi,i nisam ljuta
F                  C               Dm
nemoj da glumiš, znam, i tebi falim ja

Između strofe i refrena ide gore priloženi solo. (solo je inače sviran na klavijaturi u gitarskom modu)
Uživajte.
Komentari

GoFgO kaže:

Misliš lijepo vizualno ili ? :) Meni je odlično, da su barem svi tabovi ovako pregledni :)

10-10-2010 20:47

Masterxone kaže:

A možda je fino ispalo šta znam. Samo mi je bitno da vam se svidi tab za solo.
PS gofgo kul ti je taj Fallout avatar :)

21-10-2010 20:20

reebok kaže:

mislim da solo harmonijski ne valja - ovo je iz H solo a treba iz Dm ; valjda ce biti dovoljno da se samo "klizne" do 7. praga i to je to (nadam se da sam u pravu)
:)

14-08-2011 22:52

mile202 kaže:

e----------------------------------------------------------------|
H-------------------------8-8-8--b7-----0-3-5-7-5-2-2-2-2h3-2p0--|
G--4--6--7--6--4--2--0-------------------------------------------|
D----------------------------------------------------------------|
A----------------------------------------------------------------|
E----------------------------------------------------------------|


po meni je ovako dobro!!mislim da si malo pomjesao brojke!!ako nisam upravu slobodno recite!!

14-10-2011 20:22

mile202 kaže:

Akordi/Tabovi:
e----------------------------------------------------------------|
H-------------------------8-8-8--b7-----0-3-5-7-5-2-2-2-2h3-2p0--|
G--4--6--7--6--4--2--0-------------------------------------------|
D----------------------------------------------------------------|
A----------------------------------------------------------------|
E----------------------------------------------------------------|

14-10-2011 20:22

mile202 kaže:

ima greska a tako mi uvjek to napise ovdje!!nula i 8 se sviraju posebno!osmica ide malo desno!:)

14-10-2011 20:26

sin123 kaže:

Ovaj solo je dobar na pocetku ali ovaj kraj nevalja fali tonova

03-03-2012 15:45

LoLa kaže:

Ko se to usudija reć da ne vaja???

03-03-2012 15:56

sin123 kaže:

ma valja prvi dio ali drugi malo ne valja

03-03-2012 17:38

sin123 kaže:

e-----------------------------------------------------
B-------------------8-8-b7---3-3-3-5-7-5-2-2-2h3-2p0--
G----4-6-7-6-4-2-0------------------------------------
D-----------------------------------------------------
A-----------------------------------------------------
E-----------------------------------------------------
MENI OVO BOLJE ZVUCI

03-03-2012 17:57

sin123 kaže:

e---------------------------------------------------------------------
B-------------------------------8-8-b7---3-3-3-5-7-5-2-2-2h3-2p0------
G----4-6-7-6-4-2-0----------------------------------------------------
D---------------------------------------------------------------------
A---------------------------------------------------------------------
OVAKO JE BOLJE

03-03-2012 17:58