Film

Pjevajmo do zore - verzija 2 (original)

by: Film

Pronađi akord!

Ne znaš kako odsvirati neki od akorda pjesmi Pjevajmo do zore - verzija 2 (original)? Upiši akord u tražilicu i saznaj!

Traženi akord će se prikazati ovdje

Od istog izvođača

Pregledano 8299 puta
Pregledano 6882 puta
Pregledano 8353 puta
Pregledano 5561 puta
Pregledano 5585 puta
Trebaš ritam za ovu pjesmu? Pronađi ga ovdje
Akordi/Tabovi:
e|---------------- ---------------- ---------------- ----------------
B|---5-5-5-5-4-5-4 5-5-5-5-5-7-5-4- -5-5-5-5-5-4-5-4 -5-5-5-5-5-7-5-4
G|---------------- ---------------- ---------------- ----------------
D|---------------- ---------------- ---------------- ----------------
A|---------------- ---------------- ---------------- ----------------
E|---------------- ---------------- ---------------- ----------------

e|---------------- ---------------- ---------------- ----------------
B|-5-5-5-5-5-5-5-5 -5-5-5-5-5-5-5-5 -7-7-7-7-7-7-7-7 -5-5-5-5-5-5-5-5
G|---------------- ---------------- ---------------- ----------------
D|---------------- ---------------- ---------------- ----------------
A|---------------- ---------------- ---------------- ----------------
E|---------------- ---------------- ---------------- ----------------
     Vi  prekrasni   ljudi, sa vama   mogu  cijelu    noc,     biti

e|---------------- ---------------- ---------------- ----------------
B|-5-5-5-5-7-7-7-5 -5-5-5-5-7-5-4-5 -5-5-5-5-4-5-4-5 -5-5-5-5-5-5-5-5
G|---------------- ---------------- ---------------- ----------------
D|---------------- ---------------- ---------------- ----------------
A|---------------- ---------------- ---------------- ----------------
E|---------------- ---------------- ---------------- ----------------
budan i sanjati na  nogama,          sanjati na nogama

    E                                H                A
e|---------------- ---------------- ---------------- ----------------
B|-5-5-5-5-5-5-5-5 -5-5-5-5-7-5-4-5 -7-7-7-7-7-7-7-5 -5-5-5-5-5-5-7-5
G|---------------- ---------------- ---------------- ----------------
D|---------------- ---------------- ---------------- ----------------
A|---------------- ---------------- ---------------- ----------------
E|---------------- ---------------- ---------------- ----------------
     Vi prekrasni    ljudi,   vi ste  sve sto imam      ja

    E                A               E        H        A
e|---------------- ---------------- ---------------- ----------------
B|-5-5-5-5-7-7-7-5 -5-5-5-5-5-5-5-5 -5-5-5-5-4-5-7-5 -5-5-5-5-7-5-4-5
G|---------------- ---------------- ---------------- ----------------
D|---------------- ---------------- ---------------- ----------------
A|---------------- ---------------- ---------------- ----------------
E|---------------- ---------------- ---------------- ----------------
ne znam gdje je moja  draga,           nocas    spavala


E        H    A
Pjevajmo do zore  / x4


solo:
e|-7-5-7-5-7-5-7-5 -7-5-7-5-7-5-7-9 -7-5-7-5-7-5-7-9 12-12-12-9-7-5s7
B|---------------- ---------------- ---------------- ----------------
G|---------------- ---------------- ---------------- ----------------
D|---------------- ---------------- ---------------- ----------------
A|---------------- ---------------- ---------------- ----------------
E|---------------- ---------------- ---------------- ----------------

e|-7-5-7-5-7-5-7-9 12-12-12-9-7-5-7 12-12-12-16-12-- 9s12--12-12-12--
B|---------------- ---------------- ---------------- ------12-12-12--
G|---------------- ---------------- ---------------- ----------------
D|---------------- ---------------- ---------------- ----------------
A|---------------- ---------------- ---------------- ----------------
E|---------------- ---------------- ---------------- ----------------

E
Evo, dolazi zora
   H           A
Na zlatnim stopama
   E             A
Ti kucas na moja vrata
E       H   A
A ja ti otvaram

Uzalud saginjes glavu
Sve ti vidim u ocima
Znam da vise nisi dijete
Vec zena koja tajnu zna

      E         H     A   (A7)
Ti si zena koja tajnu zna
(Ja sam zena koja tajnu zna)
Ti si zena koja tajnu zna
(Ja sam zena koja tajnu zna)


most:

Cism                   A
Nocas sam najljepsi na svijetu (najljepsi)
H                  Cism  Gis
Divno je pjevati u zboru
Cism                A
U gomili veselih drugara (u gomili)
H
Cekati zoru (cekati zoru)


Vi prekrasni ljudi
Sa vama mogu cijelu noc
Biti budan i sanjati na nogama
Pjevati do zore
Komentari
Još nema komentara