Nina Romić

Kraj

by: xsara

Pronađi akord!

Ne znaš kako odsvirati neki od akorda pjesmi Kraj? Upiši akord u tražilicu i saznaj!

Traženi akord će se prikazati ovdje

Od istog izvođača

Pregledano 2811 puta
Pregledano 1560 puta
Pregledano 3744 puta
Trebaš ritam za ovu pjesmu? Pronađi ga ovdje
Akordi/Tabovi:
Nina Romić
Kraj
(Album:Daljine,2010.)

Tuning:Std(eBGDAE)
(Cdur)
......................
Capodaster na 3.polju:
......................

Intro:
T1:
   A  Bm  A7                       
e|--------------|
B|--2--3---2----|
G|--2--4---2----|
D|--2--4---2-2--|
A|-0--2-------2-|
E|--------3-----|4X
T1..........
Osjećam nemir
tvoji prsti čisti su nemir
u mojoj kosi
ne dotiči me se

T1..............
A bilo bi drugačije
da ponekad uhvatiš moj pogled
previše osluškuješ
a ne čuješ srce moje

T2:
   A     D                           
e|--------2-----|
B|--2--2--3-----|
G|--2--2--2-----|
D|--2-2--0---2--|
A|-0----------2-|
E|--------------|.....
T2.................
Naizgled tako divno, a tako isprazno
prešuti moje ime jer je stvarno nebitno
naizgled tako divno dok sve je čista laž
                    A     E     D
smijemo se i čekamo kraj, kraj, kraj...
                    A     E     D
smijemo se i čekamo kraj, kraj, kraj...
   D              A                           
e|---2----2----2------------|
B|--3-3--3-3--3-3-----------|
G|-2----2----2--------------|
D|--------------------6-7---|
A|-----------------4-7---4--|
E|----------------5-------5-|

T1-4x

T1...........
Ne postoje riječi
tako velike ni tako glasne
ma ništa u stvari
i ne dotiči me se...

T2................
Naizgled tako divno, a tako isprazno
prešuti moje ime jer je stvarno nebitno
naizgled tako divno dok sve je čista laž
                    A     E     D
smijemo se i čekamo kraj, kraj, kraj...
                    A     E     D
smijemo se i čekamo kraj, kraj, kraj...
   D              A                           
e|---2----2----2------------|
B|--3-3--3-3--3-3-----------|
G|-2----2----2--------------|
D|--------------------6-7---|
A|-----------------4-7---4--|
E|----------------5-------5-|

Outro-solo
T2-XXputa.....do kraja
Komentari
Još nema komentara