Opća Opasnost

Jednom kad noć - solo

by: mr.brownstone

Pronađi akord!

Ne znaš kako odsvirati neki od akorda pjesmi Jednom kad noć - solo? Upiši akord u tražilicu i saznaj!

Traženi akord će se prikazati ovdje

Od istog izvođača

Pregledano 11724 puta
Pregledano 5100 puta
Pregledano 5055 puta
Pregledano 9123 puta
Pregledano 13517 puta
Trebaš ritam za ovu pjesmu? Pronađi ga ovdje
Akordi/Tabovi:
G    D      e                                C     D    G                              G
E------------------------------------------------17b--17br-----15-------------8--------------------|
B-----------------------------------------------------------17-----17-15---10---10-8-7p5s12--------|
G--14b--14b--------------------12h14p12------------------------------------------------------------|
D----------------------12--12-----------14---------------------------------------------------------|
A---------------12--14-----------------------------------------------------------------------------|
E--------------------------------------------------------------------------------------------------|

        D     e   C        G        D      C
E------------------------------------------------------------|
B-------------8----------------------------------------------|
G---------7s9------7-9----------12---------14b-14br--12------|
D-----5-7--------9-----------14----14br12--------------------|
A-5-7--------------------------------------------------------|
E------------------------------------------------------------|


-malo sam gledao prošlog tipa koji je stavljao tablature za ovaj solo, pa sam napravio nekoliko korekcija koje mi se čine da zvuče bolje
Komentari

mr.brownstone kaže:

ne znam zašto je prvi dio razbacan, idem pokušat pormijenit

04-05-2010 00:39

mr.brownstone kaže:

G D e C D G
E-----------------------------------17b--17br-----15-------------8---------------
B---------------------------------------------17-----17-15---10---10-8-7p5s12----
G14b--14b---------------12h14p12-------------------------------------------------
D----------------12--12----------14-------------------------------------------
A---------12--14--------------------------------------------------------------
E----------------------------------------------------------------------------

13-06-2010 20:09

Dr.House kaže:

Akordi/Tabovi:
E-----------------------------------17b--17br-----15-------------8---------------
B---------------------------------------------17-----17-15---10---10-8-7p5s12----
G14b--14b---------------12h14p12-------------------------------------------------
D----------------12--12----------14-------------------------------------------
A---------12--14--------------------------------------------------------------
E----------------------------------------------------------------------------

21-07-2010 21:46