Toše Proeski

Još uvek sanjam da smo zajedno

by: Aksic Vladimir Aksa

Pronađi akord!

Ne znaš kako odsvirati neki od akorda pjesmi Još uvek sanjam da smo zajedno? Upiši akord u tražilicu i saznaj!

Traženi akord će se prikazati ovdje

Od istog izvođača

Pregledano 51752 puta
Pregledano 3595 puta
Pregledano 31291 puta
Pregledano 68988 puta
Pregledano 28106 puta
Trebaš ritam za ovu pjesmu? Pronađi ga ovdje
Akordi/Tabovi:
Aksic Vladimir / aksicvladimir@hotmail.com

Tose Proeski - Jos uvek sanjam da smo zajedno



Solo 1:

---------------------------------------------------------------------------
---13-13-13------------13-13-13------------------13-13-13------------------
------------13-12---------------13-12-13-15---------------13-12------------
------------------------------------------------------------------11-10----
---------------------------------------------------------------------------
---------------------------------------------------------------------------


Fm             Bbm               
Od kad te nema ne mogu budan biti
Eb                 Ab
jer sve sto zelim u tome budes i ti
Fm              Bbm
pa budan sanjam da snovi duze traju
C                   Fm
u svakoj prici samo ti si mi na kraju



F7              Bbm
Ti si pocetak i kraj
Eb              Ab
ti si i tama i sjaj
Fm            Bbm
svaku mi nadu delis po pola
C               Fm
dajes mi mrvice sa svoga stola
  C                    Fm
i znam bez tebe ostacu sam


Refren:

Fm                      Bbm
Jos uvjek sanjam da smo zajedno
Eb                   Ab
ko nekad davno ti i ja
Fm                    Bbm
al jutro svaki put mi pokvari
C                    Fm
tu slatku prevaru iz sna

Fm                      Bbm
Jos uvjek sanjam da smo zajedno
Eb                   Ab
i da je sve ko prvi put
Fm                 Bbm
al jutro nosi golu istinu
C              Fm
da sve je bilo uzalud


Solo 2:

-----------------------------------------------------------------
-13-13-13-----------------13-13-13-------------------------------
----------13-12-13-15--------------13-12/11----------------------
---------------------------------------------13-12-11-10/11/10---
-----------------------------------------------------------------
-----------------------------------------------------------------

-----------------------------------------------------------------
-13-13-13--------------------------------------------------------
----------13-12-13-15---17-18-17---13/14/13----------------------
-----------------------------------------------------------------
-----------------------------------------------------------------
-----------------------------------------------------------------


F#m             Bm               
Od kad te nema nema ni pola mene
E                 A
jel sve u meni od toga dana vene
F#m              Bm
pa budan sanjam da snovi duze traju
C#                  F#m
u svakoj prici samo ti si mi na kraju



F#7              Bm
Ti si pocetak i kraj
E              A
ti si i tama i sjaj
F#m            Bm
svaku mi nadu delis po pola
C#               F#m
dajes mi mrvice sa svoga stola
  C#                    F#m
i znam bez tebe ostacu sam


Refren:

F#m                      Bm
Jos uvjek sanjam da smo zajedno
E                   A
ko nekad davno ti i ja
F#m                    Bm
al jutro svaki put mi pokvari
C#                    F#m
tu slatku prevaru iz sna

F#m                      Bm
Jos uvjek sanjam da smo zajedno
E                   A
i da je sve ko prvi put
F#m                 Bm
al jutro nosi golu istinu
C#              F#m
da sve je bilo uzalud


F#m                 Bm
al jutro nosi golu istinu
C#              F#m
da sve je bilo uzalud


Solo3:

----------------------------------------------------------------------------
---14-14-14--------------------14-14-14-------------------------------------
------------14-13-14-16-----------------14-13-11----------------------------
--------------------------------------------------12-11---------------------
----------------------------------------------------------------------------
----------------------------------------------------------------------------
                        uzalud                             uzalud



Solo na kraju:

---------------------------------------------------------------------------
---------------------------------------------------------------------------
--11-11-13-14-13-11-9-9---------9-9-11-13-11-9-11--------------------------
-------------------------12-----------------------11-----------------------
---------------------------------------------------------------------------
---------------------------------------------------------------------------

---------------------------------------------------------------------------
---------------------------------------------------------------------------
---------------------------------------------------------------------------
--11-11-12-16-14-12-11-11-9-12-----11-11-12-14-12-11-9-11------------------
---------------------------------------------------------------------------
---------------------------------------------------------------------------



---------------------------------------------------------------------------
---------------------------------------------------------------------------
--11-11-13-14-13-16-14-13-11------9-9-11-13-11-9-11------------------------
-----------------------------------------------------11--------------------
---------------------------------------------------------------------------
---------------------------------------------------------------------------

---------------------------------------------------------------------------
---------------------------------------------------------------------------
---------------------------------------------------------------------------
--11-11-12-16-14-12-11-11-9-12-----11-15-16-18-18-19-18-16-----------------
---------------------------------------------------------------------------
---------------------------------------------------------------------------
Komentari

wycko kaže:

ne ide Ab nego C

05-07-2010 13:55