Yu Grupa

Dunavom još šibaju vetrovi

by: milan997

Pronađi akord!

Ne znaš kako odsvirati neki od akorda pjesmi Dunavom još šibaju vetrovi? Upiši akord u tražilicu i saznaj!

Traženi akord će se prikazati ovdje

Od istog izvođača

Pregledano 9758 puta
Pregledano 5122 puta
Pregledano 9476 puta
Pregledano 17973 puta
Pregledano 6129 puta
Trebaš ritam za ovu pjesmu? Pronađi ga ovdje
Pesma krece sa solom
Akordi/Tabovi:
e|-10-7----10-7----------10-7---------------------
H|------10------10-8-7-8------10-8-7-8-10-7--(7-8)
G|------------------------------------------9-----
D|------------------------------------------------     
A|------------------------------------------------
E|------------------------------------------------


(ono u zagradi možete ili ako nećete ne morate svirati)

Posle sola ide deo sa pevanjem

Akordi/Tabovi:
Em    D    C         Am
Stari grad brije košava
Em    D       C
Lišće pokriva sve
Em     D     C        Am
Prazan kej i golo drveće
Em     D     C
Sve je kao i pre

   G       D   Am          Em   D
    Dunavom još šibaju vetrovi i i
   G       D  Am            Em  D 
   Ali smo mi suprotni svetovi


Zatim solo
Akordi/Tabovi:
e|-10-7----10-7----------10-7---------------------
H|------10------10-8-7-8------10-8-7-8-10-7--(7-8)
G|------------------------------------------9-----
D|------------------------------------------------     
A|------------------------------------------------
E|------------------------------------------------

Akordi/Tabovi:
Em    D  C             Am
Jesen je na tebe sećam se
Em D    C        D
Al neko drugi je mlad
Em     D  C          Am
Gde li si stara ljubavi
Em     D        C
I kako izgledaš sad

  G       D   Am          Em  D
  Dunavom još šibaju vetrovi i i
  G       D  Am            Em  D       
  Ali smo mi suprotni svetovi


i solo
Akordi/Tabovi:
e|-10-7----10-7----------10-7---------------------
H|------10------10-8-7-8------10-8-7-8-10-7--(7-8)
G|------------------------------------------9-----
D|------------------------------------------------     
A|------------------------------------------------
E|------------------------------------------------


KRAJ
Komentari

milan997 kaže:

Pogresio sam solo svira se ovako
e|-10-7----10-7------------10-7---------------------
H|------10------10-8-7----------10-8-7-8-10-7--(7-8)
G|---------------------9-7--------------------9-----
D|------------------------------------------------
A|------------------------------------------------
E|------------------------------------------------

08-02-2010 12:20

shlogie.cvetkovic@gmail. kaže:

OPET IMA GRESAKA ALI KO ZNA SNACI CE SE

22-08-2012 23:08