Bajaga

Tišina

by: KEXXX

Pronađi akord!

Ne znaš kako odsvirati neki od akorda pjesmi Tišina? Upiši akord u tražilicu i saznaj!

Traženi akord će se prikazati ovdje

Od istog izvođača

Pregledano 8083 puta
Pregledano 11988 puta
Pregledano 28581 puta
Pregledano 7571 puta
Pregledano 44208 puta
Trebaš ritam za ovu pjesmu? Pronađi ga ovdje
Akordi/Tabovi:
Tišina 
Uvod:
             Am                C                         G                    G
E||------------------|------------------|------------------|-------------------|
B||-------1----------|-------1---------|--------3--------|--------3----------|
G||-----2-----2-----|-----0-----0-----|-----------0-----|-----------0-------|
D||---2---------2---|---2---------2---|-----0-------0---|-----0-------0----|
A||-0-------------0-|-3-------------3-|---2-----------2-|---2-----------2--|
E ||-----------------|-------------------|-3---------------|-3-----------------|

Mrak se skupio u kap
Rano jutro kao slap
Ulazi u sobu

Dal' si ikad pitala
Tamne senke zidova
Ujutro gdje odu

Oci su ti sklopljene
Usne su ti umorne
Ne ljubi me njima

Nisu cvorci pjevali
Dok' je iznad krovova
Svirala tisina

Prvi solo
|-------------------------------------|-------------------------------------------------------|
|-------------------------------------|------------------------------10-8-10-8-10-10\---|
|-----4-5--4-5--7/9--7~----------|-----4-5--4-5--7/9--7~-----------------------------|
|-5-7--------------------9-7-5~---|-5-7--------------------------------------------------|
|-------------------------------------|-------------------------------------------------------|
|-------------------------------------|-------------------------------------------------------|

|------------------------------------|-----------------------------------------------|
|------------------------------------|-8/10--8-------8-----------------------------|
|-----4-5--4-5--7/9--7~----------|-----------9----9-7--5-4--------------------|
|-5-7--------------------9-7-5~---|-----------------------7-5~---5-7~~~~-----|
|-------------------------------------|-----------------------------------------------|
|-------------------------------------|-----------------------------------------------|

Hajde Boze budi drug
Pa okreni jedan krug
Unazad planetu

Noc je kratko trajala
A nama je trebala
Najduza na svijetu

U mom oku samo hlad
U mom srcu samo stud
Inje i prasina

Nisu cvorci pevali
Dok je iznad krovova
Svirala tisina


Drugi solo (prvi i drugi solo su isti):
|-------------------------------------|-------------------------------------------------------|
|-------------------------------------|------------------------------10-8-10-8-10-10\---|
|-----4-5--4-5--7/9--7~----------|-----4-5--4-5--7/9--7~-----------------------------|
|-5-7--------------------9-7-5~---|-5-7--------------------------------------------------|
|-------------------------------------|-------------------------------------------------------|
|-------------------------------------|-------------------------------------------------------|

|------------------------------------|-----------------------------------------------|
|------------------------------------|-8/10--8-------8-----------------------------|
|-----4-5--4-5--7/9--7~----------|-----------9----9-7--5-4--------------------|
|-5-7--------------------9-7-5~---|-----------------------7-5~---5-7~~~~-----|
|-------------------------------------|-----------------------------------------------|
|-------------------------------------|-----------------------------------------------|


U cik zore zviždi voz
Njime odlazim u Oz
Necu da se vratim

Sto god tebi napisem
Pocepam i obrisem
Al' ti moras znati

Nisi se probudela
Zato nisi videla
Igrale su sene

Nek' te dobri drugovi
i kraljevski orlovi
cuvaju od mene.

Treči solo:
|-----------------------------------------8-7----8-7----8-7----------------|
|--10--8------8-----------------10--8------8------8-------8--8--10-----|
|------------9---9-7--5-4---------------------------------------------------|
|---------------------------7-5~---------------------------------------------|
|------------------------------------------------------------------------------|
|------------------------------------------------------------------------------|


Hajde Boze budi drug
Pa okreni jedan krug
Unazad planetu

Noc je kratko trajala
A nama je trebala
Najduza na svijetu

U mom oku samo hlad
U mom srcu samo stud
Inje i prasina

Nisu cvorci pevali
Dok je iznad krovova
Svirala tisina

Četvrti(zavrsni)solo
|-------------------------------------|-------------------------------------------------------------|
|-------------------------------------|-------------------------------10-8--10-8--10-10-10---|
|-----4-5--4-5--9--7~-------------|-----4-5--4-5--9--7~-------------------------------------|
|-5-7--------------------9-7-5~----|-5-7-------------------------------------------------------|
|-------------------------------------|-------------------------------------------------------------|
|-------------------------------------|-------------------------------------------------------------|

|------------------------12-10-8-10-12-8-10-10-8-12-10-10-|--12-8-------8------------------------------------------|
|--10-10-10--8-10------------------------------------------------|---------10---------8-10-8---8-------------------------|
|----------------------------------------------------------------------|------------------------------9---9-7-7~--5-7-9--7~--|
|----------------------------------------------------------------------|-----------------------------------------------------------|
|----------------------------------------------------------------------|-----------------------------------------------------------|
|----------------------------------------------------------------------|-----------------------------------------------------------|

|------------------------------------|------------------------------------------------------------8-10-10--8-10-12-10~---|
|------------------------------------|-------------------------------------------------------------------------------------------|
|-9-5--9-5--9-5--9-5--7-5-9--7-5-9--7-5-9--7-5-9-|-7-5-9-7-5---7-5-9-7-5--7-5---------------------------------|
|------------------------------------|-------------------------------------------------------------------------------------------|
|------------------------------------|-------------------------------------------------------------------------------------------|
|------------------------------------|-------------------------------------------------------------------------------------------|

|--12-12-12-12-12...-17-15-15-----|------------------------------------------------------|
|--------------------------------------17-|--17-17-15-13-15-17-15-13-15/17-15-15~-|
|------------------------------------------|------------------------------------------------------|
|------------------------------------------|------------------------------------------------------|
|------------------------------------------|------------------------------------------------------|
|------------------------------------------|------------------------------------------------------|
Komentari

Dark Master kaže:

ODLICNO SVAKA CAST TREZIM OVAJ ZAVRSNI SOLO MJESECIMA WOW SUPER PROBAO SAM I ODLICNO JE ORIGINALNI ORIGINAL SVAKA CAST

11-03-2010 23:08

kk_ploce kaže:

Moze proc

04-06-2010 17:54

Punker95 kaže:

Nikad neurednih tabova nisam vidio...mogo si slozi malo bolje ovo...inace je sve ok

25-06-2010 14:34

Miki2697 kaže:

meni nije jasna prva tablatura xD nisam bas shvatio...pa ako moze neko da mi pojasni :D

10-06-2011 00:53

Dark Master kaže:

jbg nije ispalo kako je trebalo...

21-09-2011 22:58

anton93 kaže:

bistar si ti momak :)

02-01-2012 13:23

straight-band kaže:

Hvala kralju za ovaj finalni solo, tražim ga već mjesecima :D

03-01-2012 11:56