Opća Opasnost

Balada za Saleta

by: zupanja-rock

Pronađi akord!

Ne znaš kako odsvirati neki od akorda pjesmi Balada za Saleta? Upiši akord u tražilicu i saznaj!

Traženi akord će se prikazati ovdje

Od istog izvođača

Pregledano 4376 puta
Pregledano 28177 puta
Pregledano 4497 puta
Pregledano 8972 puta
Pregledano 29269 puta
Trebaš ritam za ovu pjesmu? Pronađi ga ovdje
Balada za Saleta
Opća Opasnost

Akordi/Tabovi:
solo

uvodni:


E--------------------------------------------------------------------
H----------17-19-20-19-17-15-13-12-13-15---15-13--12-13-12-----------
G---16-------------------------------------------------------12-14-12
D--------------------------------------------------------------------
A--------------------------------------------------------------------
E--------------------------------------------------------------------


E------------------------------------------------
H------------------------------------------------
G-11-12-11-9--11-14-12-11-12------11-12-9-11-12-9
D------------------------------9-----------------
A------------------------------------------------
E------------------------------------------------




tako ide i prvi dio glavnog sola..a drugi dio glavnog sola je sve
isto , samo je sve za ton i pol više (3 polja)




(ovo je moj prvi post, pa ne budite prestrogi :rockon)
Komentari

zupanja-rock kaže:

krivo napisah...za 2 tona treba višlje..odnosno 4 polja..

17-01-2010 23:14

Forki kaže:

ee care odlicno je pustii ove picice sto govore da nevalja nekk i se ti potrudio .,.,.,odlicnoo

19-01-2010 19:19