Queen

We Are The Champions

by: Guitar360

Pronađi akord!

Ne znaš kako odsvirati neki od akorda pjesmi We Are The Champions? Upiši akord u tražilicu i saznaj!

Traženi akord će se prikazati ovdje

Od istog izvođača

Pregledano 1232 puta
Pregledano 1518 puta
Pregledano 12535 puta
Pregledano 1275 puta
Pregledano 968 puta
Trebaš ritam za ovu pjesmu? Pronađi ga ovdje
Akordi/Tabovi:
Queen - We Are The Champions

Tone: F
     
              Cm  Gm7/C
  I ve paid my dues
                Cm  Gm7/C
  And time after time
              Cm     Gm7/C
  I ve done my sentence
                 Cm  Gm7/C
  But commited no crime
            Eb  Ab
  And bad mistakes
             Eb  Ab
  I ve made a few
             Eb            Bb/D        Cm
  I ve had my share of sand kicked in my face
     F7          Bb   C
  But I ve come through

F          Am            Dm  Bb C
  We are the champions, my friend
     F           Am                 Bb  D/F#
  And we ll keep on fighting till the end
Gm                   Bbm           Bbo
  We are the champions, we are the champions
F           Eb/G          Ab6         Bb7     Cm7
  No time for loosers  cause we are the champions
      ( Fm7  Gm7/C )
  Of the world

               Cm  Gm7/C
  I ve taken my bows
                Cm  Gm7/C
  And my curtain calls
                Cm
  You brought me fame and fortune
                               Gm7/C
  And everything that goes with it
             Cm  Gm7/C
  I thank you all
                         Eb  Ab
  But it s been no bed of roses
             Eb  Ab
  No pleasure cruise
                 Eb
  I consider it a challenge
                  Bb/D  Cm
  Before the whole human race
     F7            Bb   C
  And I ain t gonna lose


the solos (midle guitar):
|--------------------------------||--------------------------------------|
|-b11-b11-b11-b13-r11-8----------||--------------------------------------|
|-----------------------9--------||-17b19-b19-14--17b19------------------|
|-------------------------10-----||---------------------b19-17-15--------|
|----------------------------8---||-------------------------------17-15-\|
|--------------------------------||--------------------------------------|

|---------------------------------------|
|---------------------------------------|
|----------------------12-14-15-/17-----|
|-12---h13r12p10h12---------------------|
|-----------------------------------15\-|
|---------------------------------------|

|-------------------------------------------------------------------------|
|-------------------------------------------------------------------------|
|-15---17---18-17---15-\5---10----------10\0--------10\-------10----10-10-|
|-------------------------------8/10---------/10-------/10-10----10-------|
|-------------------------------------------------------------------------|
|-------------------------------------------------------------------------|


|------------------------------------------|
|-13b15---b15--b15---13b15--r13p11-10------|
|-------------------------------------12-\-|
|------------------------------------------|
|------------------------------------------|
|------------------------------------------|

|------17b18-17-18-15b17--b17r15p13--15b17--b17r15p13--15b17--b17r15p13--|
|-8/15-------------------------------------------------------------------|
|------------------------------------------------------------------------|
|------------------------------------------------------------------------|
|------------------------------------------------------------------------|
|------------------------------------------------------------------------|

|-15b16--b16r15p13--20b22--20-18-17-----------------|
|-----------------------------------20-18-20--------|
|-------------------------------------------19-17\--|
|---------------------------------------------------|
|---------------------------------------------------|
|---------------------------------------------------|
Komentari

Andrea kaže:

Video lekcija: http://www.youtube.com/watch?v=UEK7eH_YM4s
Pozz svima!

18-02-2009 03:36

shlogie.cvetkovic@gmail. kaže:

malo ga zakomlikovao

04-05-2012 19:01