Opća Opasnost

Jednom kad noc intro lekcija

by: steel123

Pronađi akord!

Ne znaš kako odsvirati neki od akorda pjesmi Jednom kad noc intro lekcija? Upiši akord u tražilicu i saznaj!

Traženi akord će se prikazati ovdje

Od istog izvođača

Pregledano 5988 puta
Pregledano 13383 puta
Pregledano 8174 puta
Pregledano 18141 puta
Pregledano 3317 puta
Trebaš ritam za ovu pjesmu? Pronađi ga ovdje
Akordi/Tabovi:
JEDNOM KAD NOC INTRO:

-----3---------3-----------2----------------
----3-3-3-----3-3---------3-3--------3--3---
---0---0-----0---0-------2----------0--0----
--------------------0h2-0-------------------
-----------3-------------------0-2-3--2--0--
-3------------------------------------------


----3--------2--------0---3--2--0------0--------2--------3-------------
---3-3-3----3-3-3----0-0-0-0--0--0----2-2-0----3-3-3----3-3-3---3--3---
--0---0----2---2----0---0---0--0-----0---0----2---2----0---0---0--0----
----------0----------------------------------0-------------------------
------------------------------------3-------------------------3--2---0-
-3-----------------0----------------------------------3----------------



Evo i video lekcija:


http://www.youtube.com/watch?v=75XCqDetXM4&feature=player_embedded#
Komentari

steel123 kaže:

Uradit cu uskoro i video lekciju.

09-12-2009 21:47

Mala ruzinava kaže:

Ja sam pcetnik.. I zanima me sta znaci ovo u prvoj tablaturi h2.. Kako se to svira?

04-01-2010 00:40

GoFgO kaže:

Pogledaj pod lekcije sto je to hammer-on o kak ose svira npr 0h2

04-01-2010 05:16

pastir kaže:

mala ruzinava tu odsviraš 4 žicu (0) i onda udariš prstom u 2 polje.ovo ti je lajičko objašnjenje

23-03-2010 10:36

Bojannn kaže:

odlična lekcija i nebi zanovjetao ali na 2:04 treba na b žici svirat prvo polje a ne drugo..ptavilno ti sviraš i pravilno zvuči...samo je u tabi napisano da je drugo polje 2 puta..

02-02-2012 06:34

Bojannn kaže:

pravilno*

02-02-2012 06:35

hekler1 kaže:

Samo jedna ispravka kod uvoda
-----3---------3-----------2----------------
----3-3-3-----3-3---------3-3--------3--3---
---0---0-----0---0-------2----------0--0----
--------------------0h2-0-------------------
-----------3-------------------0-2-3--2--0--
-3------------------------------------------


prvi takt o.k., u drugome ide 5. žica 3. polje (to je dobro), treća prazna žica (i to je o.k.) pa ide 1. žica na 3. polju, te druga na 3. polju.....ostalo je o.k.

29-01-2014 13:45

2High kaže:

ovo bi bilo točno skinuto po pjesmi.... tamo se lijepo čuje da prvi puta se svira drugačije nego kad počne pjevat...



dalje se vrti samo ovo u krug... ima još nešto razlaganja na kraju, al to nisam skinuo još...




..mislim da je ovo definitivno bolje nego ovo šta se vrti tu po stranici... eto uživajte...

22-04-2015 16:44