Toma Zdravković

Dotak'o sam dno zivota

by: Moravac

Pronađi akord!

Ne znaš kako odsvirati neki od akorda pjesmi Dotak'o sam dno zivota? Upiši akord u tražilicu i saznaj!

Traženi akord će se prikazati ovdje

Od istog izvođača

Pregledano 23501 puta
Pregledano 67423 puta
Pregledano 10230 puta
Pregledano 16054 puta
Pregledano 1382 puta
Trebaš ritam za ovu pjesmu? Pronađi ga ovdje
Akordi/Tabovi:
e |-10--12-12-12-12-12-12-12-12-10-12-13-12-10-12-10--------10----------------------|
H |----------------------------------------------------13--------13-12-10-12-13-12--|
G |---------------------------------------------------------------------------------|
D |---------------------------------------------------------------------------------|
A |---------------------------------------------------------------------------------|
E |---------------------------------------------------------------------------------|


e |---------------------------------------------------------------------------------|
H |-12--13-13-13-13-13-13-13-13-12-10-12-10-8-10-8-----------8----------------------|
G |-----------------------------------------------------10--------10-9-7-8-10-9-----|
D |---------------------------------------------------------------------------------|
A |---------------------------------------------------------------------------------|
E |---------------------------------------------------------------------------------|


                         
E |-10----8-----7----------5------|
H |-------------------------------|
G |-------------------------------|
D |-------------------------------|
A |-------------------------------|
E |-------------------------------|
Komentari

ron_in kaže:

Dotako sam dno zivota I pakao I ponore
Ali ti mi dusu uze ti prokleti zenski stvore
Jer zbog tebe nemam mira u snovima I na javi
2 X
Kako da te muko moja
Kako da te tugo moja
Kako da te srce moje
Na trenutak zaboravim

Solo

Duboko je, daleko je Ja osetih svu gorcinu
Dotako sam dno zivota sad verujem u sudbinu
Ali tebe vise nema u snovima I na javi
2 X
Kako da te muko moja
Kako da te tugo moja
Kako da te srce moje
Na trenutak zaboravim

Solo

Sibali su moju dusu, I orkani I tornada
Ali ti mi dusu uze ti prokelta zeno mlada
Pa zbog tebe nemam mira u snovima I na javi
2 X
Kako da te muko moja
Kako da te tugo moja
Kako da te srce moje
Na trenutak zaboravim

15-12-2009 08:31