Led Zeppelin

Ramble On

by: rock forever

Pronađi akord!

Ne znaš kako odsvirati neki od akorda pjesmi Ramble On? Upiši akord u tražilicu i saznaj!

Traženi akord će se prikazati ovdje

Od istog izvođača

Pregledano 1746 puta
Pregledano 1235 puta
Pregledano 1834 puta
Pregledano 2539 puta
Pregledano 3027 puta
Trebaš ritam za ovu pjesmu? Pronađi ga ovdje
Akordi/Tabovi:
VERSE
     ho               ho
e|--X--------------------0-00-0---00-0000-------
B|--9--7----7-7----------5-55-5---55-5555-------
G|--9--7----7-9----------6-66-67--77-6666-------
D|--9--7----7-7----------7-77-7---77-7777-------
A|--7--7----7-9----------0-00-0---00-0000-------
E|--0-------0-----------------------------------

BRIDGE

    E   F#m    G#m  A    F#m E
e|--4----2------4---0----2---0------------------
B|--0----2------4---5----2---0------------------
G|--1----2------4---6----2---1------------------
D|--2----4------6---7----4---2------------------
A|--2----4------6---0----4---2------------------
E|--0----2------4--(0)---2---0------------------
CHORUS
 
e|--------------000---0-00---0-00--0-00---------
B|--999--7--9--555---3-33---3-33--2-22---------
G|--999--7--9--666---4-44---0-00--0-00---------
D|--999--7--9--777---5-55---4-44--2-22---------
A|--777--7--7--000---0-00---0-00--0-00---------
E|--000-----------------------------------------


Ramble On - Led Zeppelin

VERSE 1
Leaves are fallin' all around
It's time, I was, on my way
Thanks to you, I'm much obliged
For such-a pleasant stay

VERSE 2
But now it'sss, time for me to go
The autumn moon lights my-way
For now I smell the rain, and with it pain
And it's headed my wa-ay

BRIDGE
Aw sometimes I grow so tired
But I know I've got one thing I got to do

CHORUS
Ramble on
And now's the time the time is now, to sing my song
I'm going around the world I got to find my girl
On my way
I've been this way ten years to the day...Ramble on
Got the queen of all my dream

VERSE 3
Got no time for spreadin' roots
The time has come to be gone
And though our health we drank a thousand times
It's time to ramble on

SOLO BREAK   2:03ish
Left Harmony
Vol swell  ho/po/ha etc
B|------------------------------2--------
G|->>>4---4-2-4---4-2-4---4-2-4---4-2-4--   Four Times

Right Harmony
Vol swell  ho/po/ho etc
e|--------------------------------12---------
B|->>>15-14-15--15-14-15--15-14-15--15-14-15-  Four Times
CHORUS (words slightly different)
Ramble on 
And now's the time the time is now, to sing my song
I'm goin' around the world, I got to find my girl
On my way
I've been this way ten years to the day, I gotta
Ramble on 
I gotta find the queen of all my dreams

SOLO BREAK 2:30ish
Left Harmony

e|13-11-10------13-11-10------13-11-10----13-11-10------10--10
B|--------13-11---------13-11---------------------13-11---13--  Twice, then :

e|--10---
B|13--11~~~~~

Right Harmony
B|15-13----------15-13---------15-13-----15-13------------------
G|-----14-12----------14-12---------14--------14-12-----14-12-14
D|----------15-------------15-----------------------15----------  Twice, then :

G|12-14-12~~~~~~

VERSE 4
Mine's a tale that can't be told
My freedom I hold dear
How ye-ears ago in da-ays of old
When ma-agic filled the air

VERSE 5
Just-in the darkest depths of Mordor
(M)I met a girl so fair
But Gollum, and the evil one crept up..
and slipped away with her-her, her-her, her-yea

Ain't nothing I can do no
I guess I keep on rambelin'
I'm gonna.....shake (sing my song) shake, shake, I gotta find my baby
I'm gonna ramble on, sing my song
Gonna work my way around the world (ramble on)
doo doo doo doo (I can't stop this feeling in my heart)
Gotta keep searching for my baby
baby, baby, baby, baby, baby
Komentari
Još nema komentara