Riblja Čorba

Napolju (3. verzija)

by: Gibson95

Pronađi akord!

Ne znaš kako odsvirati neki od akorda pjesmi Napolju (3. verzija)? Upiši akord u tražilicu i saznaj!

Traženi akord će se prikazati ovdje

Od istog izvođača

Pregledano 6563 puta
Pregledano 7414 puta
Pregledano 2966 puta
Pregledano 5695 puta
Pregledano 15358 puta
Trebaš ritam za ovu pjesmu? Pronađi ga ovdje
Akordi/Tabovi:
Em  C  C#  D#  (x2)

---------------------------------------------------------------
---11---9---7---------------------11~---------12~-16-16-13-15~-
-8----8---8---8-10-8-11~--11-10-8-----11-10-8------------------
---------------------------------------------------------------
---------------------------------------------------------------
---------------------------------------------------------------

-------------------------------------------------------------------------
11-9-------------------11~---------12~-16-16-13-15~-15-16-18--19^18^15^16
-----11-10-11~-11-10-8-----11-10-8---------------------------------------
-------------------------------------------------------------------------
-------------------------------------------------------------------------
-------------------------------------------------------------------------

  Em
  Umoran, bolestan i malo ranjiv
  Nikakav, ocajan, pomalo sanjiv
B        Am
  Napolju pticice
B        Am
  Pale bi nicice
  G         D   Em
  Kad bi me videle

  Em
  Polomljen, porazen i malo mrtav
  Trese me groznica, glas mi je drhtav
B         Am
  Tramvaji prolaze
B       Am
  Vode nadolaze
  G         D  Em
  Dok me ne utope
  G         D  Em
  Dok me ne utope

    D             Em
  A napolju nista vise
       D            Em
  Osim tople letnje kise
    D             Em
  A napolju lisce susti
  G       D        Em
  Izgleda da mnogo pljusti
 
    D             Em
  A napolju nista vise
       D            Em
  Osim tople letnje kise
    D             Em
  A napolju lisce susti
  G       D        Em
  Izgleda da mnogo pljusti
  G       D        Em
  Izgleda da mnogo pljusti

-------------------------------------------------------
--11-9-------------------11~---------12~-16-16-13-15~--
8------11-10-11~-11-10-8-----11-10-8-------------------
-------------------------------------------------------
-------------------------------------------------------
--------------------------------------------------------

-------------------------------------------------------------------------
11-9-------------------11~---------12~-16-16-13-15~-15-16-18--19^18^15^16
-----11-10-11~-11-10-8-----11-10-8---------------------------------------
-------------------------------------------------------------------------
-------------------------------------------------------------------------
-------------------------------------------------------------------------

  Em
  Oci u oci sa svojom bedom
  Ja pravdam sebe i mrzim sve redom
B        Am
  Prica o ljubavi
B       Am
  Obicno ugnjavi
  G       D        Em
  Cutim i grize me cir

Em
  Umoran, bolestan i malo ranjiv
  Nikakav, ocajan, pomalo sanjiv
B        Am
  Napolju pticice
B        Am
  Pale bi nicice
  G         D   Em
  Kad bi me videle
  G         D   Em
  Kad bi me videle

    D             Em
  A napolju nista vise
       D            Em
  Osim tople letnje kise
    D             Em
  A napolju lisce susti
  G       D        Em
  Izgleda da mnogo pljusti
 
    D             Em
  A napolju nista vise
       D            Em
  Osim tople letnje kise
    D             Em
  A napolju lisce susti
  G       D        Em
  Izgleda da mnogo pljusti
  G       D        Em
  Izgleda da mnogo pljusti
Komentari
Još nema komentara