Riblja Čorba

Novi Svetski Poredak

by: Gibson95

Pronađi akord!

Ne znaš kako odsvirati neki od akorda pjesmi Novi Svetski Poredak? Upiši akord u tražilicu i saznaj!

Traženi akord će se prikazati ovdje

Od istog izvođača

Pregledano 4358 puta
Pregledano 2929 puta
Pregledano 2537 puta
Pregledano 4225 puta
Pregledano 5634 puta
Trebaš ritam za ovu pjesmu? Pronađi ga ovdje
Akordi/Tabovi:
C                    Am
Nova pravila vladaju svetom
C                       Am
i nista nije kao sto je bilo,
Dm                F
ljubav se ukida dekretom,
Dm                  F
sreca se prodaje na kilo.

C             Am
Svi ideali su sahranjeni,
C              Am
novi su zakoni ispisani,
Dm              F
snovi su strogo zabranjeni,
Dm            F
iz secanja su izbrisani.

D     G          D
Majka zemlja crkava,
D      G      D
neuspesni pobacaj,
D       G       D
napolju se smrkava,
F                Am
nema vise ,to je kraj
Dm               C
nema vise ,to je kraj.

D      G         D
Stigla zasluzena kazna,
D       G       D
cutanje i mrkli mrak,
D       G        D   
planeta je mrtva,prazna,
F            Am
novi svetski poredak
Dm           C
novi svetski poredak.

C            Am
Sva su odela jednobrazna,
C             Am
i smeh i plac su ukinuti,
Dm                 F
umetnost drska i bezobrazna,
Dm               F
sama od sebe ce uginuti.

C                    Am
Nikakvih nacija nema vise,
C                       Am
svi su postali gradjani sveta,
  Dm              F
i danonocno se kontrolise
Dm             F
gomila mediokriteta.

D     G          D
Majka zemlja crkava,
D      G      D
neuspesni pobacaj,
D       G       D
napolju se smrkava,
F                Am
nema vise ,to je kraj
Dm               C
nema vise ,to je kraj.

D      G         D
Stigla zasluzena kazna,
D       G       D
cutanje i mrkli mrak,
D       G        D   
planeta je mrtva,prazna,
F            Am
novi svetski poredak
Dm           C
novi svetski poredak.


***VERZIJA 2***

Transkripcija: Vai

Uvod:
     F              Am       C               Dm
E||-----------------------|--------------10--10~---|
B||--------8----10--10~---|--11----13--------------|
G||--10-------------------|------------------------|
D||-----------------------|------------------------|
A||-----------------------|------------------------|
E||-----------------------|------------------------|

  F                                       Dm                    Dm    C
--13----12h13h12--------|--------------|-------------------------------||
------------------15----|--15r(17)--13-|--15~-------17----18----20b(22)||
------------------------|--------------|-------------------------------||
------------------------|--------------|-------------------------------||
------------------------|--------------|-------------------------------||
------------------------|--------------|-------------------------------||
Komentari
Još nema komentara