Riblja Čorba

Devicanska Ostrva

by: Gibson95

Pronađi akord!

Ne znaš kako odsvirati neki od akorda pjesmi Devicanska Ostrva? Upiši akord u tražilicu i saznaj!

Traženi akord će se prikazati ovdje

Od istog izvođača

Pregledano 3014 puta
Pregledano 3834 puta
Pregledano 4982 puta
Pregledano 2255 puta
Pregledano 2174 puta
Trebaš ritam za ovu pjesmu? Pronađi ga ovdje
Akordi/Tabovi:
Am
Svaki pokret znaci bol
      Dm
svaka misao je bol
    F          E
devicanska ostrva
       E         Am
sledim te k'o apostol

         Am
Slomljen mi je svaki zglob
       Dm
okovan sam kao rob
    F          E
devicanska ostrva
     E           Am
losa sreca i zla kob

    G
Devicanska ostrva
      C         G
ti si tamo bila gost
    G
pristupacna obala
F              Am
izgubljena nevinost

    G
Devicanska ostrva
      C         G
ti si tamo bila gost
    G
pristupacna obala
F              Am
izgubljena nevinost


         Am                      Dm                   F        E         Am
-----------------------------------------------------------------------------
---------------------------------17------------------------------------------
-14--16--17-16--14-14-14~--16-17-----17-16-14~--14-16-17--17~--16--14-13-14~-  x2
-----------------------------------------------------------------------------
-----------------------------------------------------------------------------
-----------------------------------------------------------------------------


    Am
Nepoznati taj i taj
      Dm
jedva ceka brzi kraj
    F          E
devicanska ostrva
       E          Am
trazim izgubljeni raj

    Am
Ona ljubav gde ti je
     Dm
kraj tebe primeti je
      F         E
to su tvoja ostrva
     E          Am
moje su prokletije

    G
Devicanska ostrva
      C         G
ti si tamo bila gost
    G
pristupacna obala
F              Am
izgubljena nevinost

    G
Devicanska ostrva
      C         G
ti si tamo bila gost
    G
pristupacna obala
F              Am
izgubljena nevinost


         Am                      Dm                   F        E         Am
-----------------------------------------------------------------------------
---------------------------------17------------------------------------------
-14--16--17-16--14-14-14~--16-17-----17-16-14~--14-16-17--17~--16--14-13-14~-
-----------------------------------------------------------------------------
-----------------------------------------------------------------------------
-----------------------------------------------------------------------------
         Bm                      Em                   G        F#        Bm
-----------------------------------------------------------------------------
---------------------------------19------------------------------------------
-16--18--19-18--16-16-16~--18-19-----19-18-16~--16-18-19--19~--18--16-15-16~-
-----------------------------------------------------------------------------
-----------------------------------------------------------------------------
-----------------------------------------------------------------------------


    A
Devicanska ostrva
      D         A
ti si tamo bila gost
    A
pristupacna obala
G              Bm
izgubljena nevinost

    A
Devicanska ostrva
      D         A
ti si tamo bila gost
    A
pristupacna obala
G              Bm
izgubljena nevinost

         Bm                      Em                   G        F#        Bm
-----------------------------------------------------------------------------
---------------------------------19------------------------------------------
-16--18--19-18--16-16-16~--18-19-----19-18-16~--16-18-19--19~--18--16-15-16~-
-----------------------------------------------------------------------------
-----------------------------------------------------------------------------
-----------------------------------------------------------------------------
         Bm                      Em                   G        F#
---------------------------------------------------------------------
---------------------------------19----------------------------------
-16--18--19-18--16-16-16~--18-19-----19-18-16~--16-18-19--19~--18~---
---------------------------------------------------------------------
---------------------------------------------------------------------
---------------------------------------------------------------------

---------------------------------------
---------------------------------------
-16~--15~--16~-------------------------
----------------15-16--12-14--12-11-9--
---------------------------------------
---------------------------------------
Komentari
Još nema komentara