Opća Opasnost

Amerika (Intro)

by:

Pronađi akord!

Ne znaš kako odsvirati neki od akorda pjesmi Amerika (Intro)? Upiši akord u tražilicu i saznaj!

Traženi akord će se prikazati ovdje

Od istog izvođača

Pregledano 30102 puta
Pregledano 15300 puta
Pregledano 9396 puta
Pregledano 67373 puta
Pregledano 8372 puta
Trebaš ritam za ovu pjesmu? Pronađi ga ovdje
Akordi/Tabovi:
D                     F            G
e|-----2--2----------------1--1--1------3--3--3-----------|
H|-----3--3----------------1--1--1------0--0--0-----------|
G|-----2--2----5-2-0-2-----2--2--2------0--0--0-----------|
D|-----0--0----------------3--3--3------0--0--0-----------|     2x se svira ovo,2. put kad se svira na
A|-------------------------3--3--3------2--2--2-----------|     kraju se odsvira i D
E|--------------------------------------3--3--3-----------|

         D                    F            G
e|-----2--2----------------1--1--1-----3--3--3------------|
H|-----3--3----------------1--1--1-----3--3--3------------|
G|-----3--2----5-2-0-2-----2--2--2-----4--4--4------------|    4x se svira ovo, ima jos neki lick na
D|-----0--0----------------3--3--3-----5--5--5------------|    gitari al ga ja nesviram
A|-------------------------3--3--3-----5--5--5------------|
E|-------------------------1--1--1-----3--3--3------------|



         D     F     G    F D
e|------2-2---5-5---7-7---5-2--------------|
H|------3-3---6-6---8-8---6-3--------------|
G|------2-2---5-5---7-7---5-2--------------|  Ovo je drugi dio intra !!
D|-----------------------------------------|
A|-----------------------------------------|
E|-----------------------------------------|


Ovaj riff 5 2 0 2 se ne svira doslovno tako ima onih pullova al mi se to nije dalo pisat,skuzt ce kog bude zanimalo...A onaj ko oce svirat cjelu pjesmu,pjesma ide D F G, negdje D G A,na kraju stiha ili tak nest i to je to..
Komentari

pop pž kaže:

malo sam zezno tabove jer mi tekst uso u njih al se nadam da cete skuzt

24-10-2009 12:57