Deep Purple

Knocking On Your Back Door

by:

Pronađi akord!

Ne znaš kako odsvirati neki od akorda pjesmi Knocking On Your Back Door? Upiši akord u tražilicu i saznaj!

Traženi akord će se prikazati ovdje

Od istog izvođača

Pregledano 2264 puta
Pregledano 6553 puta
Pregledano 2043 puta
Pregledano 3416 puta
Pregledano 23519 puta
Trebaš ritam za ovu pjesmu? Pronađi ga ovdje
Akordi/Tabovi:
Knocking On Your Back Door

|----------|--------------|--------------|--------------|
|----------|--------------|--------------|--------------|
|----------|--------------|--------------|--------------|
|----------|-5-6-3-6------|-5-6-3-6------|-5-6-3-6------|
|----------|--------------|--------------|--------------|
|----------|--------------|--------------|--------------|

|--------------|-------------|--------------|-----------|
|--------------|-------------|--------------|-----------|
|--------------|-------------|--------------|-----------|
|------5-6-3-6-|-5-----------|------5-6-3-6-|-5---------|
|--------------|-------------|--------------|-----------|
|--------------|-------------|--------------|-----------|

|-----------------|-----------------|--------------|----------------|
|-----------------|-----------------|--------6-6---|-6-6------6-6---|
|-----------------|-----------------|--------5-5---|-5-5------5-5---|
|---6---3---6-5---|---6---3---6-5---|-5------6-6---|-6-6------6-6---|
|-----------------|-----------------|--------------|----------------|
|-----------------|-----------------|--------------|----------------|


|----------------|----------------|
|-6-6------6-6---|-6-6------6-6---|
|-5-5------5-5---|-5-5------5-5---|
|-6-6------6-6---|-6-6------6-6---|
|----------------|----------------|
|----------------|----------------|

|-----------|---------|----------|-----------------|-------------|---|
|-----------|---------|----------|-----------------|-------------|---|
|-7-6-9-7-6-|-2-4-2-0-|-/4-2-2-4-|-7-6-9-7-6-2-4-2-|-0-/4-2-2-4--|---|
|-7-7-9-7-7-|-2-4-2-0-|-/4-2-2-4-|-7-7-9-7-7-2-4-2-|-0-/4-2-2-4--|---|
|-----------|---------|----------|-----------------|-------------|---|
|-----------|---------|----------|-----------------|-------------|---|

|-------------------|-----------------|----------------|
|-------------------|-----------------|----------------|
|-------------------|------7----------|----------------|
|-------9---9\------|----7-7----------|------7\--------|
|----9--9---9\------|-5--5-5----------|----7-7\--------|
|-7-----7---7\------|-----------------|-5--5-5\--------|

|---------------------|------------------|-----------------|
|---------------------|------------------|-----------------|
|---------------------|------------------|------7----------|
|-----5-----------7---|-------9--9\------|----7-7----------|
|---5-----------------|----9--9--9\------|-5--5-5----------|
|-3--------5--5-5-----|-7-----7--7\------|-----------------|

|-----------------|------------------|--------------------|
|-----------------|------------------|--------------------|
|-----------------|------------------|-7------------------|
|-----7\----------|-----9-9\-------7-|-7----------7\------|
|---7-7\----------|---9-9-9\-----5-5-|-5--------7-7\------|
|-5-5-5\----------|-7---7-7\---------|--------5-5-5\------|

|-----------------|------------------|-------------|----|
|-----------------|------------------|-------------|----|
|-----------------|------------------|---7---------|----|
|-----5---------7-|-------9-9\-------|-7-7---------|----|
|---5-------------|-----9-9-9\-----5-|-5-5---------|----|
|-3-------5-5-5---|---7---7-7\-------|-------------|----|

|---3---|----------|---------3-3-|---------|-3--3--3-|---------|
|---3---|----------|-----2-2-0-0-|-2--2--2-|-0--0--0-|---------|
|-------|----------|-7-7-2-2-0-0-|-2--2--2-|-0--0--0-|---------|
|-------|-2------2-|-7-7-2-2-0-0-|-2--2--2-|-0--0--0-|-2----2--|
|-------|-2------2-|-5-5-0-0-2-2-|-0--0--0-|-2--2--2-|-2----2--|
|-3-----|-0------0-|---------3-3-|---------|-3--3--3-|-0----0--|

|---------3-3-|-----|---------|-2-2------2-|-2--2--2--3--|----|
|-----2-2-0-0-|-2-2-|-2-2-2-2-|-3-3------3-|-3--3--3--3--|----|
|-7-7-2-2-0-0-|-2-2-|-0-0-2-2-|-4-4------4-|-4--4--4--4--|----|
|-7-7-2-2-0-0-|-2-2-|-2-2-2-2-|-4-4------4-|-4--4--4--5--|----|
|-5-5-0-0-2-2-|-0-0-|-----0-0-|-2-2------2-|-2--2--2--5--|----|
|---------3-3-|-----|---------|------------|----------3--|----|

|----5--------|--------2----------------------------------------|
|----5--------|----------5-4-3-2-3-2---2------------------------|
|----6--------|-4b6r=4---------------0---5-4-2--4---2-1----1----|
|----7--------|-----------------------------------4-------------|
|----7--------|-------------------------------------------------|
|----5--------|-----------------------------------------------2-|

|----------------------------------------------------------------|
|----------------------------------------------------------------|
|-2--4p0-4-2-0-2-4-2-0-4-4-2-0---2----------0----------------2---|
|------------------------------4----4--2--0----------------------|
|---------------------------------------------2b4r=2---2s3s4-----|
|----------------------------------------------------------------|

|-------------------------------------0-1-0----------------------------|
|-2-3-2-0-----------------------------------3-2-0-2-3-2-0--------------|
|---------4-2S1-------2-4-2-2-4S6-4h6---------------------2p1---1-2----|
|---------------4-2-0-----------------------------------------4-----4--|
|----------------------------------------------------------------------|
|----------------------------------------------------------------------|

|----------------------------------------------------------9---------12b14---|
|-------2------3-2---------0--------------------12b14r==12---12--10----------|
|-----0------0-------7-7-6-0-9-9-7---7-9-9s11-9------------------------------|
|---0------0-------0---------------------------------------------------------|
|-0--------------------------------0-----------------------------------------|
|----------------------------------------------------------------------------|

|-12-0-12-9-------------------------12-------------14----------------19-17-14-------------19-17-14--|
|-----------12-12b14r12-10-12-12b14--------0-14-17-----------------0--------------------0-----------|
|----------------------------------------0------------18s17-16---0------------17-16---0-------------|
|--------------------------------------0-----------------------0--------------------0---------------|
|---------------------------------------------------------------------------------------------------|
|---------------------------------------------------------------------------------------------------|

|------------------------------------------------------------------------------------------------------|
|-17-14-17b21.5--17b19-17-16-15-14------------14-17---------------14-----------------------------------|
|----------------------------------18b21r==18-------16b18r=16b18-----14b15-----16-14b17r=14-------14\--|
|---------------------------------------------------------------------------16-------------------------|
|------------------------------------------------------------------------------------------------------|
|------------------------------------------------------------------------------------------------------|

|--------2-4-5-4-2---2-------------------------------------------|
|-----/3----------------5-3-5b7r==5-3s2--------------------------|
|-0-0--------------5--------------------4b6r=4--2----------------|
|-------------------------------------------------4-----4----4---|
|----------------------------------------------------------------|
|----------------------------------------------------2-----------|

|------------------------------------------------------------|
|------------------------------------------------------------|
|------------------------------------------1-2--4-6-4-6-4-6--|
|-0----------2s4---------2--4-2-4-5-4-2--4-------------------|
|----4--5--4--------4-5--------------------------------------|
|------------------------------------------------------------|

|-9--12--12b14r=12------------------------------------------16-17-16-0-4--4-5-4-2---|
|------------------12b14r=12--10--12-10----10-------------0-------------------------|
|---------------------------------------11----11---11---0-------------------------0-|
|-----------------------------------------------------0-----------------------------|
|-----------------------------------------------------------------------------------|
|-----------------------------------------------------------------------------------|
                                               
|-2---------2p0-------------------------------------------------------|
|---5b7r=5------3-2p0-2-3p2-0-----------------------------------------|
|-------------------------------2p0-----------------------------------|
|-----------------------------4-----4p2-0---2-4p0---------2-----------|
|-----------------------------------------4-------4-2-0---------------|
|-------------------------------------------------------0----0--2-0---|
Komentari
Još nema komentara