Opća Opasnost

Opca Opasnost-uvod

by:

Pronađi akord!

Ne znaš kako odsvirati neki od akorda pjesmi Opca Opasnost-uvod? Upiši akord u tražilicu i saznaj!

Traženi akord će se prikazati ovdje

Od istog izvođača

Pregledano 6235 puta
Pregledano 3020 puta
Pregledano 4380 puta
Pregledano 9545 puta
Pregledano 6140 puta
Trebaš ritam za ovu pjesmu? Pronađi ga ovdje
Akordi/Tabovi:
OPCA OPASNOST - OPCA OPASNOST (UVOD)




    H5       G5               A5         H5
E||-------------------------|----------------------------|
B||-------------------------|----------------------------|
G||-------------------------|----------------------------|
D||-------------------------|----------------------------|
A||--2--4--5-----------2~---|-----2h--4p--2~----4--5~----|
E||-----------3~----5-------|--5-------------------------|


   H5       G5               A5         H5
--------------------------|---------------------------|
--------------------------|---------------------------|
--------------------------|---------------------------|
--------------------------|---------------------------|
--2--4--5-----------2~----|-----2h--4p--2~------------|
-----------3~----5--------|--5------------------------|


   H5       G5               A5         H5
--------------------------|----------------------------|
--------------------------|----------------------------|
--4--6--7-----------4~----|-----4h--6p--4~----6--7~----|
-----------5~----7--------|--7-------------------------|
--------------------------|----------------------------|
--------------------------|----------------------------|


   H5       G5               A5         H5
--------------------------|------------------------------|----||
--------------------------|------------------------------|----||
--4--6--7-----------4~----|-----6--7--7b-7--6h-7p-6--6---|----||
-----------5~----7--------|-/7------------------------7--|----||
--------------------------|------------------------------|----||
--------------------------|------------------------------|----||
Komentari
Još nema komentara