Led Zeppelin

What Is And What Should Never Be Bass Tab

by:

Pronađi akord!

Ne znaš kako odsvirati neki od akorda pjesmi What Is And What Should Never Be Bass Tab? Upiši akord u tražilicu i saznaj!

Traženi akord će se prikazati ovdje

Od istog izvođača

Pregledano 2064 puta
Pregledano 1392 puta
Pregledano 1700 puta
Pregledano 1498 puta
Pregledano 36276 puta
Trebaš ritam za ovu pjesmu? Pronađi ga ovdje
Akordi/Tabovi:
Intro: 0:02

           slow slide
G-------------|----------------------------|--------------9----------|
D-4----------2/7---------7-----------------|--------9h11-----11\9----|
A-4-----------|-----7h9----9-7-0-----0-4--0|----7--------------------|
E-------------|----------------------------|-------------------------|

G-----------------------------|-----------9---------|-------------------------|
D--7-------7------------------|-----9h11-----11\9---|-7-----7-----------------|
A-----7h9-----9-7--0---0-4-4-4|--7------------------|---7h9----9-7-0--0-4-5-6-|
E-----------------------------|---------------------|-------------------------|

G-----------9---------|-----------------------------------|
D-----9h11-----11\9---|--7-------7------------------------|
A--7------------------|-----7h9-----9-7-0----0--4--3------|
E---------------------|-------------------------------7--6|
Chorus (catch the wind, see us spin)
G-------------------------------------------------|
D--------------7-------------5------------5-------|
A-------------------------------------------------|
E---5----5-5------5-----5------5--5--5-------5---5|

G----------------------------------------------------|
D--4-------------4-----------------------------------|
A------------------------------7----------5---4------|
E-----5---5---5------5----5---------x-------------7--|

G------------------------------------------------------|
D----------------7-----------5---------------5---------|
A------------------------------------------------------|
E---5----5--5--------5---5-------5---5---5------5---5--|

G-------------------------------------------|
D---4------------4--------------------------|
A--------------------------7--5---4---------|
E-------5--5--5-----5---5-------------7---5-|

G------------------------------------------------|
D-----------9-----------7--------------7---------|
A------------------------------------------------|
E--7---7-7-----7----7-------7---7---7------7---7-|
                                                   whole note
G---------------------------------------------|---------------|
D---6-------------6---------------------------|---------------|
A------------------------------9----7----6----|---------------|
E-------7--7--7-------7---7------------------7|-------2-------|
Post chorus riff

G------------------------|-----------|
D------------------------|-----------|
A----------------2h4-----|-----------|
E---5-------------------4|--0--------|
Second verse: Basically same as first, with slight variations.

G------|-----------------------------------|-------------9-----------------|
D-----2/7--------7-------------------------|------9h11------11\9-----------|
A------|----7h9------9---7---0--0--4---5--6|-7-----------------------------|
E------|-----------------------------------|-------------------------------|

G-------------------------------|------------9--------|
D--7--------7-------------------|------9h11-----11\9--|
A-----7h9------9--7--0----0-4--0|--7------------------|
E-------------------------------|---------------------|

G----------------------------------------|
D--7--------7----------7-----------------|
A------7h9-----9---7---------5-4--3------|
E------------------------------------7--6|
Second chorus: Same as first, but the post chorus riff is different.
Post chorus riff:

G---------------|------------------------|--------------------|
D---------------|----------------2---4---|--------------------|
A---------------|----------2--4----------|--------------------|
E---2----------2|--5--------------------4|-0------------------|
Guitar solo: Same basic set up as verse, but with variations.

G------|------------------------|----------9------------------|
D-----2/7-----7-----------------|-----9h11----11--9--6--9--6--|
A------|--7h9---9-7-0----0-4-5-6|--7--------------------------|
E------|------------------------|-----------------------------|

G---------------------------|-----------9--11h13--11--9-------|
D--7-------7----------------|-----9h11-------------------11\9-|
A-----7h9------9--7--4--5--6|--7------------------------------|
E---------------------------|---------------------------------|

G---------------------|---------------------|-----4h6-4---------------|
D--7--7-6-------------|----------------5h6-x|-7----------7-4----------|
A----------9-7-------7|------2--4--7--------|----------------7--4-----|
E---------------7h9---|-0--4----------------|----------------------7--|
Then play the chorus riff, then play this post chorus riff:

G---------------|--------------------1|-----------------------|
D---------------|-----------2---4--2--|-----------------------|
A---------------|-------2h4-----------|-----------------------|
E---2----------2|--5------------------|--0--------------------|

Verse three:

G------|--------------------------|---------9---------|
D-----2/7-------7-----------------|----9h11----11\9---|
A------|---7h9-----9--0--4--5-6--0|-7-----------------|
E------|--------------------------|-------------------|

G------------------------------------|-----------9------------|
D--7-------7-------------------------|-----9h11-----11--9-----|
A-----7h9-----9--7--0-----0--4--5---6|--7---------------------|
E------------------------------------|------------------------|

G----------------------------------------|
D--7---------7----------7----------------|
A------7h9------9---7-----------5-4-3----|
E-------------------------------------7-6|
Then play the chorus again, then play this post chorus:

G---------|------------------------1-|------------------------|
D---------|----------------2--2h4----|------------------------|
A---------|-----------2h4------------|------------------------|
E--2------|--5-----------------------|-0----------------------|

Then there are three bars of rest, then play:

G------------|-------------------|-------------------------------------|
D------------|--------6h7--------|---------5p4-------------------------|
A------------|---5H7-------------|--4h5-----------7-----7--------------|
E----------0-|-------------------|-------------------7------7-----0----|

G------------------------|-----------------------------------|--------------|
D------------6h7---------|--------5--4-----------------------|------6h7-----|
A-----5h7---------------4|--4h5---------7-----5--6--7--------|-5h7----------|
E------------------------|-----------------7-----------7-----|--------------|

G------------------------|----------------|----------------------------|
D-------5p4--------------|-------6h7------|-------5p4--------9---------|
A--4h5---------7---------|--5h7-----------|--4h5-------7---7---7-7-7-7-|
E-----------------7--0---|----------------|----------------------------|

G----------------------|----------------------|-----------------------------|
D--------6--7-------14\|-------5p4------------|------6h7-------------7------|
A--5h7-----------------|--4h5-------7--7------|-5h7-------------7--7---7----|
E----------------------|------------------7--0|-----------------------------|

G------------------------------|------------------------------|
D--------5p4-------------------|-------x-6h7----------7-7-----|
A---4h5--------7-----7--7------|--5h7---------------7---------|
E-----------------7--------7--0|------------------------------|

G------------------------------|--------------|-----------------------------|
D------x-5-4-3-2---------------|---------6-7--|------x-5p4------------------|
A--4h5-----------x-2-0---------|-5-7-7-7------|--4h5--------7-6-5-4---------|
E----------------------3--2-0-0|--------------|---------------------0-7-6-5-|
Komentari
Još nema komentara