Led Zeppelin

Immigrant Song Bass Tab

by:

Pronađi akord!

Ne znaš kako odsvirati neki od akorda pjesmi Immigrant Song Bass Tab? Upiši akord u tražilicu i saznaj!

Traženi akord će se prikazati ovdje

Od istog izvođača

Pregledano 4393 puta
Pregledano 6418 puta
Pregledano 1494 puta
Pregledano 1519 puta
Pregledano 4536 puta
Trebaš ritam za ovu pjesmu? Pronađi ga ovdje
Akordi/Tabovi:
Tuning: E A D G

-Intro-
G|----------------|      G|-------------------|
D|-----4-------4--|      D|-----4-------------|
A|----------------| (x7) A|-------------------|
E|-2-22-2--2-22-2-|      E|-2-22-2--2/55-5-00-|

-Verse-

G|-------------------------------------------------------------|
D|----------------------------------4-------4-------4-------4--|
A|-------------------------------------------------------------|
E|-0-00-00--0-00-00--0-000-00/5\2-22-2--2-22-2--2-22-2--2-22-2-|

G|----------------------------------------------------------|
D|-----4-------4--------4---------------4-------4--------4--|
A|----------------------------------------------------------|
E|-2-22-2--2-22-20--2-22-2--2-22X2--2-22-2--2-22-20--2-22-2-|

G|-----------------------------------------------------------------|
D|-----------------------------------------------------------------|
A|--------------------------------------4-------4-------4-------4--|
E|-2/55-5-00-00000--00000--000000/5\2-22-2--2-22-2--2-22-2--2-22-2-|

-Chorus-
G|--------------------------------------------------------------------|
D|----------------------67-----679--------7810-------7810-------78910-|
A|-------------------679----679-------7810-------7810-------7810------|
E|-555-555-555-555-79-----79-------810--------810--------810----------|

-Pre-Verse-
G|----------------|      G|-----------------|
D|-----4-------4--|      D|-----4-----------|
A|----------------| (x5) A|-----------------|
E|-2-22-2--2-22-2-|      E|-2-22-2--2/55-5\-|

-Verse-
-Chorus-
-3rd Verse-
G|--------------------| G|---------------|
D|-----4---------4----| D|---------------|
A|--------------------| A|-------------3-| (x3)
E|-2-22-2-0--2-22-2-0-| E|-2-22-2-2--22--|

G|------------------|       |---------------------|
D|-----4------------|       |---34--42--22--------|
A|-------------3034-| (x4)  |---------2---22-2234-|
E|-2-22-22--22------|       |-2-------------------|

-Guitar Solo-  (x4)
G|------------------------2---------------------------------------------------------------------------------
D|-----4---4-2------4---24-2------4---444-----4-----42-----4-------4--------4---444424----44-4--------------
A|----------X-X--------------4---------------------------------------------------------------------0--------
E|-222--22------2-22-22-------2-22-2-2----2-22-22-22---2-22-22-2-22-220-2-22-22--------22------002---0--001-

G|---2224444666-699-----------------------------------------------2--------------------------|
D|-44-------------------4----4444234---4--------------4-4-4444424---2h4-h-hhhh-2h4-4-4-44444-|
A|-------------------------------------------------------------------------------------------|
E|------------------2-22-22---------2-----2--2222202-----------------------------------------|

-Outro-
G|----------------------------------|
D|-----4-------4-------4------------|
A|----------------------------------|
E|-2-22-20-2-22-20-2-22-20-2/X/X/0\-|

G|------------------|      G|-----------| 
D|-----4------------|      D|-----4-----|
A|------------------| (x3) A|-----------|
E|-2-22-2--2/X/X/0\-|      E|-2-22-2-22-|
Komentari
Još nema komentara