Led Zeppelin

Dazed And Confused Bass Tab

by:

Pronađi akord!

Ne znaš kako odsvirati neki od akorda pjesmi Dazed And Confused Bass Tab? Upiši akord u tražilicu i saznaj!

Traženi akord će se prikazati ovdje

Od istog izvođača

Pregledano 2135 puta
Pregledano 1712 puta
Pregledano 2063 puta
Pregledano 2410 puta
Pregledano 2271 puta
Trebaš ritam za ovu pjesmu? Pronađi ga ovdje
Akordi/Tabovi:
Intro:
G|------------------------------|------------------------------|
D|------------------------------|------------------------------|
A|---10--9--8--7----5--4--3--2--|---10--9--8--7----5--4--3--2--|
E|-0--------------0-------------|-0--------------0-------------|

G|------------------------------|
D|------------------------------|
A|---10--9--8--7----5--4--3--2--|
E|-0--------------0-------------|

Verse 1:
G|------------------------------|------------------------------|
D|------------------------------|------------------------------|
A|---10--9--8--7----5--4--3--2--|---10--9--8--7----5--4--3--2--|
E|-0--------------0-------------|-0--------------0-------------|

G|------------------------------|
D|------------------------------|
A|---10--9--8--7----5--4--3--2--|
E|-0--------------0-------------|

Pre-Verse 1:
G|------------------------------|------------------------------|
D|------------------------------|------------------------------|
A|---10--9--8--7----5--4--3--2--|---10--9--8--7----5--4--3--2--|
E|-0--------------0-------------|-0--------------0-------------|

G|------------------------------|
D|------------------------------|
A|---10--9--8--7----5--4--3--2--|
E|-0--------------0-------------|

Verse 2:
G|------------------------------|------------------------------|
D|------------------------------|------------------------------|
A|---10--9--8--7----5--4--3--2--|---10--9--8--7----5--4--3--2--|
E|-0--------------0-------------|-0--------------0-------------|

G|------------------------------|
D|------------------------------|
A|---10--9--8--7----5--4--3--2--|
E|-0--------------0-------------|

Pre-Verse 2:
G|------------2-4---------------|------------2-4---------------|
D|--------2-4-----2-4-----------|--------2-4-----2-4-----------|
A|-2-2-2------------------------|-2-2-2------------------------|
E|------------------------------|------------------------------|

G|------------2-4---------------|------------2-4---------------|
D|--------2-4-----2-4-----------|--------2-4-----2-4-----------|
A|-2-2-2------------------------|-2-2-2------------------------|
E|------------------------------|------------------------------|

Pre-Verse 1:
G|------------------------------|------------------------------|
D|------------------------------|------------------------------|
A|---10--9--8--7----5--4--3--2--|---10--9--8--7----5--4--3--2--|
E|-0--------------0-------------|-0--------------0-------------|

G|------------------------------|
D|------------------------------|
A|---10--9--8--7----5--4--3--2--|
E|-0--------------0-------------|

Verse 3:
G|------------------------------|------------------------------|
D|------------------------------|------------------------------|
A|---10--9--8--7----5--4--3--2--|---10--9--8--7----5--4--3--2--|
E|-0--------------0-------------|-0--------------0-------------|

G|------------------------------|
D|------------------------------|
A|---10--9--8--7----5--4--3--2--|
E|-0--------------0-------------|

Pre-Verse 2:
G|------------2-4---------------|------------2-4---------------|
D|--------2-4-----2-4-----------|--------2-4-----2-4-----------|
A|-2-2-2------------------------|-2-2-2------------------------|
E|------------------------------|------------------------------|

G|------------2-4---------------|------------2-4---------------|
D|--------2-4-----2-4-----------|--------2-4-----2-4-----------|
A|-2-2-2------------------------|-2-2-2------------------------|
E|------------------------------|------------------------------|

Violin Bow solo:
G|------------------------------|------------------------------|
D|-----------------------0------|-----------------------0------|
A|--2-2-2-2-0----2-2-2-2--------|--2-2-2-2-0----2-2-2-2--------|
E|------------------------------|------------------------------|

G|------------------------------|------------------------------|
D|-----------------------0------|-----------------------0------|
A|--2-2-2-2-0----2-2-2-2--------|--2-2-2-2-0----2-2-2-2--------|
E|------------------------------|------------------------------|

G|------------------------------|------------------------------|
D|-----------------------0------|-----------------------0------|
A|--2-2-2-2-0----2-2-2-2--------|--2-2-2-2-0----2-2-2-2--------|
E|------------------------------|------------------------------|

G|------------------------------|------------------------------|
D|-----------------------0------|-----------------------0------|
A|--2-2-2-2-0----2-2-2-2--------|--2-2-2-2-0----2-2-2-2--------|
E|------------------------------|------------------------------|

G|------------------------------|------------------------------|
D|-----------------------0------|-----------------------0------|
A|--2-2-2-2-0----2-2-2-2--------|--2-2-2-2-0----2-2-2-2--------|
E|------------------------------|------------------------------|

G|------------------------------|------------------------------|
D|-----------------------0------|-----------------------0------|
A|--2-2-2-2-0----2-2-2-2--------|--2-2-2-2-0----2-2-2-2--------|
E|------------------------------|------------------------------|

G|------------------------------|------------------------------|
D|-----------------------0------|-----------------------0------|
A|--2-2-2-2-0----2-2-2-2--------|--2-2-2-2-0----2-2-2-2--------|
E|------------------------------|------------------------------|

Guitar Solo (14x):
E|--------------------------------|--------------------------------|
D|--------5-7-5------------5-7-5--|--------5-7-5------------5-7-5--|
A|-----5-7--------------5-7-------|-----5-7--------------5-7-------|
E|--5-7--------------5-7----------|--5-7--------------5-7----------|

Pre-Verse 2:
G|------------2-4---------------|------------2-4---------------|
D|--------2-4-----2-4-----------|--------2-4-----2-4-----------|
A|-2-2-2------------------------|-2-2-2------------------------|
E|------------------------------|------------------------------|

G|------------2-4---------------|------------2-4---------------|
D|--------2-4-----2-4-----------|--------2-4-----2-4-----------|
A|-2-2-2------------------------|-2-2-2------------------------|
E|------------------------------|------------------------------|

Pre-Verse 1:
G|------------------------------|------------------------------|
D|------------------------------|------------------------------|
A|---10--9--8--7----5--4--3--2--|---10--9--8--7----5--4--3--2--|
E|-0--------------0-------------|-0--------------0-------------|

G|------------------------------|
D|------------------------------|
A|---10--9--8--7----5--4--3--2--|
E|-0--------------0-------------|

Verse 4:
G|------------------------------|------------------------------|
D|------------------------------|------------------------------|
A|---10--9--8--7----5--4--3--2--|---10--9--8--7----5--4--3--2--|
E|-0--------------0-------------|-0--------------0-------------|

G|------------------------------|
D|------------------------------|
A|---10--9--8--7----5--4--3--2--|
E|-0--------------0-------------|

Pre-Verse 2:
G|------------2-4---------------|------------2-4---------------|
D|--------2-4-----2-4-----------|--------2-4-----2-4-----------|
A|-2-2-2------------------------|-2-2-2------------------------|
E|------------------------------|------------------------------|

G|------------2-4---------------|------------2-4---------------|
D|--------2-4-----2-4-----------|--------2-4-----2-4-----------|
A|-2-2-2------------------------|-2-2-2------------------------|
E|------------------------------|------------------------------|

Outro:
G|---------------------------|---------------------------|
D|---------------------------|---------------------------|
A|---2-2-2-2-2--2-2-2-2-2----|---2-2-2-2-2--2-2-2-2-2----|
E|---------------------------|---------------------------|

G|---------------------------|---------------------------|
D|---------------------------|---------------------------|
A|---2-2-2-2-2--2-2-2-2-2----|---2-2-2-2-2--2-2-2-2-2----|
E|---------------------------|---------------------------|

G|---------------------------|---------------------------|
D|---------------------------|---------------------------|
A|---2-2-2-2-2--2-2-2-2-2----|---2-2-2-2-2--2-2-2-2-2----|
E|---------------------------|---------------------------|

G|---------------------------|---------------------------|
D|---------------------------|---------------------------|
A|---2-2-2-2-2--2-2-2-2-2----|---2-2-2-2-2--2-2-2-2-2----|
E|---------------------------|---------------------------|

G|---------------------------|---------------------------|
D|---------------------------|---------------------------|
A|---2-2-2-2-2--2-2-2-2-2----|---2-2-2-2-2--2-2-2-2-2----|
E|---------------------------|---------------------------|

G|---------------------------|---------------------------|
D|---------------------------|---------------------------|
A|---2-2-2-2-2--2-2-2-2-2----|---2-2-2-2-2--2-2-2-2-2----|
E|---------------------------|---------------------------|

G|---------------------------|---------------------------|
D|---------------------------|---------------------------|
A|---2-2-2-2-2--2-2-2-2-2----|---2-2-2-2-2--2-2-2-2-2----|
E|---------------------------|---------------------------|

G|---------------------------|---------------------------|
D|---------------------------|---------------------------|
A|---2-2-2-2-2--2-2-2-2-2----|---2-2-2-2-2--2-2-2-2-2----|
E|---------------------------|---------------------------|

G|---------------------------|---------------------------|
D|---------------------------|---------------------------|
A|---2-2-2-2-2--2-2-2-2-2----|---2-2-2-2-2--2-2-2-2-2----|
E|---------------------------|---------------------------|

G|---------------------------|---------------------------|
D|---------------------------|---------------------------|
A|---2-2-2-2-2--2-2-2-2-2----|---2-2-2-2-2--2-2-2-2-2----|
E|---------------------------|---------------------------|
                                                      ^
G|---------------------------|----------------------------|
D|---------------------------|----------------------------|
A|---2-2-2-2-2--2-2-2-2-2----|---2-2-2-2-2--2-2-2-2-2-2---|
E|---------------------------|----------------------------|

^=hold note
Komentari
Još nema komentara