Led Zeppelin

Communication Breakdown Bass Tab

by:

Pronađi akord!

Ne znaš kako odsvirati neki od akorda pjesmi Communication Breakdown Bass Tab? Upiši akord u tražilicu i saznaj!

Traženi akord će se prikazati ovdje

Od istog izvođača

Pregledano 2625 puta
Pregledano 2662 puta
Pregledano 3241 puta
Pregledano 5723 puta
Pregledano 1712 puta
Trebaš ritam za ovu pjesmu? Pronađi ga ovdje
Akordi/Tabovi:
G|----------------|----------------|----------------|----------------|
D|----------------|----------------|----------------|----------------|
A|----------------|----------------|----------------|--5---------5---|
E|----------------|----------------|----------------|--------5-------|


G|----------------|----------------|----------------|----------------|
D|----------------|----------------|----------------|----------------|
A|7-7-7-7-7-7-7-7-|7-5---------5---|7-7-7-7-7-7-7-7-|7-5---------5---|
E|----------------|--------5-------|----------------|--------5-------|

G|----------------|----------------|----------------|----------------|
D|----------------|----------------|----------------|----------------|
A|7-7-7-7-7-7-7-7-|7-5---5-----5---|7-7-7-7-7-7-7-7-|--5---5-----5---|
E|----------------|--------5-------|----------------|--------5-------| 4X
hey girlie_man u better stop what ur doing.....

G|--------------2-|--2-2-2---------|--------------2-|----------------|
D|----------2-4---|--------4-2-----|----------2-4---|--4---2---------|
A|0-0-0-3-4-------|------------4-0-|--0-0-3-4-------|----------4-2-0-|
E|----------------|----------------|----------------|----------------|
kommunication breakdown

G|--------4-2-----|------------2-4-|--2-------------|----------------|
D|------------4---|--2---3---4-----|------4---1-2---|----------------|
A|2-2-2-2-------2-|----------------|--------------2-|--2-2---2---2---|
E|----------------|----------------|----------------|----------------|

G|----------------|----------------|----------------|----------------|
D|----------------|----------------|----------------|----------------|
A|7-7-7-7-7-7-7-7-|7-5---------5---|7-7-7-7-7-7-7-7-|7-5---------5---|
E|----------------|--------5-------|----------------|--------5-------| 5X

G|--------------2-|--2-2-2---------|--------------2-|--0-------------|
D|----------2-4---|--------4-2-----|----------2-4---|------4---2-----|
A|0-0-0-3-4-------|------------4-0-|--0-0-3-4-------|--------------4-|
E|----------------|----------------|----------------|----------------|
kommunication breakdown
G|--4-----2-------|------------2-4-|--2-------------|----------------|
D|----------4-2---|----------4-----|------4---2-----|----------------|
A|2-------------2-|--2---6---------|------------5-2-|--2-2-2-2---2---|
E|----------------|----------------|----------------|----------------|

G|----------------|----------------|
D|----------------|----------------|
A|7---------------|----------------|
E|----------------|----------------|

Bass Solo
G|----------------|----------------|----------------|----------------|
D|----------------|----------------|----------------|----------------|
A|7-7-7-7-7-7-7-7-|7-5---------5---|7-7-7-7-7-7-7-7-|7-5---------5---|
E|----------------|--------5-------|----------------|--------5-------| 4X

G|--------------2-|--0-------------|----------------|----------------|
D|----------2-----|------4---2---0-|----------------|----------------|
A|0-0-0-3-4-------|----------------|--4---2---0-----|----------------|
E|----------------|----------------|--------------2-|--3---4---5-5-5-|
kommunication breakdown

G|--------------11|--11--9---8-----|----------------|----------------|
D|--------9-7-----|------------9-7-|----------------|----------------|
A|----------------|----------------|--9---7---5---6-|----------------|
E|7-7-7-7---------|----------------|----------------|--7---------7---|

G|----------------|----------------|----------------|----------------|
D|----------------|----------------|----------------|----------------|
A|7-7-7-7-7-7-7-7-|--5---------5---|7-7-7-7-7-7-7-7-|--5---------5---|
E|----------------|--------5-------|----------------|--------5-------| 5X
Komentari
Još nema komentara