Led Zeppelin

Black Dog Bass Tab

by:

Pronađi akord!

Ne znaš kako odsvirati neki od akorda pjesmi Black Dog Bass Tab? Upiši akord u tražilicu i saznaj!

Traženi akord će se prikazati ovdje

Od istog izvođača

Pregledano 4824 puta
Pregledano 2112 puta
Pregledano 6416 puta
Pregledano 1929 puta
Pregledano 2699 puta
Trebaš ritam za ovu pjesmu? Pronađi ga ovdje
Akordi/Tabovi:
Verse riff:
G||--------------|--------5-----7--9--|--5--7--5--------5-----|
D||*-------5--6--|--7--------7--------|-----------7--7-----7--|
A||*----7--------|-----7--------------|-----------------------|
E||--------------|--------------------|-----------------------|


                                                                     
------------------------------|
--5--7--7--------------------*|
-----------5--7--3--5--------*|
-----------------------5--5---|

Long verse end riff:
|---------------|--------------------|
|---------------|--------5-----------|
|---------5--6--|--7--------7-----5--|
|--5---7--------|-----7--------7-----|

--------------------|--------------------|--------------------------|
-----------5--------|--------------5-----|--------------------5--6--|
--6--7--------7-----|--5--6--7--------7--|-----5--6--7--5--7--------|
--------7--------7--|-----------7--------|--7-----------------------|

                                                                             
--------5-----7--9--|--5--7--5--------5-----|--------------------|-----------
--7--------7--------|-----------7--7-----7--|--5--7--7-----------|-----------
-----7--------------|-----------------------|-----------5--7--3--|--5--------
--------------------|-----------------------|--------------------|-----5--5--

There are 3 verses, then the first Chorus

Chorus (Type 1)This a condensed form, notes are longer, so listen for the rhythm.
                                                         
|-----------------------|------------------||
|*----------------------|-----------------*||
|*----------------------|--3--------------*||
|---5----5----5----5----|-------5----5-----||



Verses 4 and 5

Bridge (let A ring  for duration)


Interlude (2nd type of chorus, as the book calls it)
-------------------------------|----------------------||
-------------------------------|----------------------||
--------------------x--3-------|--------------7----5--||
--5--3--5--3/-5--3----------3/-|--5--3--5--3/---------||

Verses 6,7 and 8

End with long verse riff
|---------------|--------------------|
|---------------|--------5-----------|
|---------5--6--|--7--------7-----5--|
|--5---7--------|-----7--------7-----|

--------------------|--------------------|--------------------------|
-----------5--------|--------------5-----|--------------------5--6--|
--6--7--------7-----|--5--6--7--------7--|-----5--6--7--5--7--------|
--------7--------7--|-----------7--------|--7-----------------------|

                                                                             
--------5-----7--9--|--5--7--5--------5-----|--------------------|-----------
--7--------7--------|-----------7--7-----7--|--5--7--7-----------|-----------
-----7--------------|-----------------------|-----------5--7--3--|--5--------
--------------------|-----------------------|--------------------|-----5--5--

Chorus (Type 1)(Alternate ending, Replaces the last bar after repeat)

--------------------
--------------------|
5----4----3---------|
---------------5----|

Verses 9 and 10

Bridge (let A ring  for duration)

Interlude or Chorus 3/Guitar Solo. (again, I don't know why they numbered it this way)

-------------------------------|----------------------||
-------------------------------|----------------------||
--------------------x--3-------|--------------7----5--||
--5--3--5--3\-5--3----------3\-|--5--3--5--3\---------||

Repeat until end with some variations on dead notes and slides etc
Komentari
Još nema komentara