Deep Purple

Smoke on the water /uvod/

by: milan997

Pronađi akord!

Ne znaš kako odsvirati neki od akorda pjesmi Smoke on the water /uvod/? Upiši akord u tražilicu i saznaj!

Traženi akord će se prikazati ovdje

Od istog izvođača

Pregledano 2255 puta
Pregledano 2215 puta
Pregledano 7152 puta
Pregledano 2151 puta
Pregledano 2590 puta
Trebaš ritam za ovu pjesmu? Pronađi ga ovdje
Akordi/Tabovi:
e|---------------------------------
H|---------------------------------
G|---------------------------------
D|---------------------------------
A|-----3----4-3-----3--------------
E|-3-6--3-6-----3-6---6-3----------
Komentari

Abbath kaže:

NE,NE I NE Pogresno!!!!!!

13-08-2009 17:33

Abbath kaže:

NE,NE I NE Pogresno!!!!!!

13-08-2009 17:33

gad of war kaže:

na ovom sajtu svaka verzija pesme ppogresna:stupid

19-04-2010 19:26

Decoy kaže:

Ajde ako oćete neku lakšu verziju, možete probat sa:

e|---------------------------------
H|---------------------------------
G|--0-3-5-0-3-6-5-0-3-5-3-0--------
D|--0-3-5-0-3-6-5-0-3-5-3-0--------
A|---------------------------------
E|---------------------------------

16-08-2011 22:49