Vines

Spaceship

by:

Pronađi akord!

Ne znaš kako odsvirati neki od akorda pjesmi Spaceship? Upiši akord u tražilicu i saznaj!

Traženi akord će se prikazati ovdje

Od istog izvođača

Pregledano 836 puta
Pregledano 817 puta
Pregledano 700 puta
Pregledano 669 puta
Pregledano 825 puta
Trebaš ritam za ovu pjesmu? Pronađi ga ovdje
Akordi/Tabovi:
this is my first tab sooo go easy yo

(finger picking)
verse
   Bm               
e|----------2---------------0---------------0----------------0-------|
B|----3-------3-------3-------3-------3-------3--------3-------3-----|
G|------4---------4-----4---------4-----4---------4------4---------4-|
D|-------------------------------------------------------------------|
A|-2------2-----2---0-----0-----0------------------------------------|
E|----------------------------------3-----3-----3----2-----2-----2---|
                                                 
e|---------0-------0----------------------0-----0-------------------0----|
B|---3-------3-------3-------3--------3-------3-----3-------3-----3------|
G|-----4-------4---------4-----4--------4---------------4-----4---------4|
D|-----------------------------------------------------------------------|
A|-----------------------------------------------------------------------|
E|-0-----0-------0-----0---0-----0--2-------2-----2---2---2-----2-----2--|x3
  ^third time thru reapeat the 2nd bar
Komentari
Još nema komentara