Vines

Get Free

by:

Pronađi akord!

Ne znaš kako odsvirati neki od akorda pjesmi Get Free? Upiši akord u tražilicu i saznaj!

Traženi akord će se prikazati ovdje

Od istog izvođača

Pregledano 769 puta
Pregledano 821 puta
Pregledano 856 puta
Pregledano 669 puta
Pregledano 1098 puta
Trebaš ritam za ovu pjesmu? Pronađi ga ovdje
Akordi/Tabovi:
LEGEND:
b - bend
x - palm mute


-|---|--------------------|--------------------|--------------------|-------|-
-|---|--------------------|--------------------|--------------------|-------|-
-|---|--------------------|--------------------|--------------------|-55----|-
-|---|--------------------|--------------------|--------------------|-55-55-|-
-|-3-|-5-5-5-5-5b-5b-5b-3-|-5-5-5-5-5b-5b-5b-3-|-5-5-5-5-5b-5b-5b-3-|-33-55-|-
-|---|--------------------|--------------------|--------------------|----33-|-
Introduction: Play Twice
                                                   

-|-x-|-x-x-x-x-x-x-x-x-|-x-x-x-x-x-x-x-x-|-x-x-x-x---------|----------|-
-|---|-----------------|-----------------|-----------------|----------|-
-|---|-7-7-7-7-7-7-7---|-7-7-7-7-7-7-7---|-7-7-7-7-7-7-7---|-5-5------|-
-|---|-7-7-7-7-7-7-7---|-7-7-7-7-7-7-7---|-7-7-7-7-7-7-7---|-5-5--5-5-|-
-|-3-|-5-5-5-5-5-5-5-3-|-5-5-5-5-5-5-5-3-|-5-5-5-5-5-5-5-3-|-3-3--5-5-|-
-|---|-----------------|-----------------|-----------------|------3-3-|-
Verse: Play Twice   
                                                         

-|--------------------------------------|-
-|--------------------------------------|-
-|-5--7---5--7---5--7-------------------|-
-|-5--7---5--7---5--7----5-5-5-6-6-3-3--|-
-|-3--5---3--5---3--5----5-5-5-6-6-3-3--|-
-|-----------------------3-3-3-4-4-1-1--|-
Chorus: Play Four Times   
                                                   

-|-------------------------------------------|-
-|-------------------------------------------|-
-|-7--5-7-5---7--5-7-5--7--5-7-5-7b8b7-5-----|-
-|-7----------7---------7----------------7-5-|-
-|-5----------5---------5--------------------|-
-|-------------------------------------------|-
Solo: Play Twice         
                                                   

-|-x-|-x-x-x-x-x-x-x-x-|-x-x-x-x-x-x-x-x-|-x-x-x-x---------|----------|-
-|---|-----------------|-----------------|-----------------|----------|-
-|---|-7-7-7-7-7-7-7---|-7-7-7-7-7-7-7---|-7-7-7-7-7-7-7---|-5-5------|-
-|---|-7-7-7-7-7-7-7---|-7-7-7-7-7-7-7---|-7-7-7-7-7-7-7---|-5-5--5-5-|-
-|-3-|-5-5-5-5-5-5-5-3-|-5-5-5-5-5-5-5-3-|-5-5-5-5-5-5-5-3-|-3-3--5-5-|-
-|---|-----------------|-----------------|-----------------|------3-3-|-
Verse: Play Twice 
                                                         

-|--------------------------------------||END OF 4th TIME|-
-|--------------------------------------||---------------|-
-|-5--7---5--7---5--7-------------------||---------------|-
-|-5--7---5--7---5--7----5-5-5-6-6-3-3--||-5-5-5-6-6-7-7-|-
-|-3--5---3--5---3--5----5-5-5-6-6-3-3--||-5-5-5-6-6-7-7-|-
-|-----------------------3-3-3-4-4-1-1--||-3-3-3-4-4-5-5-|-
Chorus: Play Four Times 
                 

-|---------------|---------------|---------------|---------------|----------|-
-|---------------|---------------|---------------|---------------|----------|-
-|---------------|---------------|---------------|---------------|----------|-
-|-8-----6-6-8-8-|-5-----3-3-5-5-|-8-----6-6-8-8-|-7-----5-5-7-7-|-----5-5-7|-
-|-8-8-8---------|-5-5-5---------|-8-8-8---------|-7-7-7---------|-7-7------|-
-|-6-------------|-3-------------|-6-------------|-5-------------|----------|-
Bridge: Play Once                                                           


-|---|--------------------|--------------------|--------------------|-------|-
-|---|--------------------|--------------------|--------------------|-------|-
-|---|--------------------|--------------------|--------------------|-55----|-
-|---|--------------------|--------------------|--------------------|-55-55-|-
-|-3-|-5-5-5-5-5b-5b-5b-3-|-5-5-5-5-5b-5b-5b-3-|-5-5-5-5-5b-5b-5b-3-|-33-55-|-
-|---|--------------------|--------------------|--------------------|----33-|-
Introduction: Play Twice   


-|--------------------------------------|-
-|--------------------------------------|-
-|-5--7---5--7---5--7-------------------|-
-|-5--7---5--7---5--7----5-5-5-6-6-3-3--|-
-|-3--5---3--5---3--5----5-5-5-6-6-3-3--|-
-|-----------------------3-3-3-4-4-1-1--|-
Chorus: Play Four Times
Komentari
Još nema komentara