Opća Opasnost

Jednom Kad Noc /Verzija 3/

by: gitaristx

Pronađi akord!

Ne znaš kako odsvirati neki od akorda pjesmi Jednom Kad Noc /Verzija 3/? Upiši akord u tražilicu i saznaj!

Traženi akord će se prikazati ovdje

Od istog izvođača

Pregledano 7973 puta
Pregledano 5406 puta
Pregledano 4517 puta
Pregledano 7269 puta
Pregledano 1532 puta
Trebaš ritam za ovu pjesmu? Pronađi ga ovdje
Akordi/Tabovi:
e|--------3---------------2-------------------0-------------------|
B|------0---0-----------3----3-------------0----0-----------------|
G|----0-------0-------2---------2-------0---------0---------------|
D|------------------0---------------------------------------------|
A|-----------------------------------2----------------------------|
E|--3-------------------------------------------------------------|

e|-------------0------------------2--------------------3----------|
B|----------1----1-------------3-----3--------------0-----0-------|
G|-------0---------0--------2-----------2--------0------------0---|
D|-----------------------0----------------------------------------|
A|---3------------------------------------------------------------|
E|--------------------------------------------3-------------------|


G          D              Em
Jednom kad noc ukrade nebu
C       D         G        C
Sve sto si voljela na njemu
           D              Em          C
Bit ce ti zao, bit ce zao sto nisam tu
         G      D         C    C*
Ruke pamte samo ljubav najbolju
G          D                 Em
Jednom kad usne ne budu htjele
C         D       G
U strancu utjehu traziti
         D                    Em   
Suze ce srcu sapnuti da je pogrijesilo
C            D                       G
Jer nije ostalo tamo gdje je jedino voljelo




Am               D
Kad tuga jednom na vrata dodje
G            C
A samoca zaboli
  Am                D             C         CCCCCCC
Hoces li moci ime moje sa usana svojih skloniti


G        D              Am
Bili smo jednom najbolji
          D            Am
O nama su price pricali
                 D           Em            C
I sad kad se sjetis htjela bi vrijeme vratiti
G                       D              C                   G
Poslije mene su mi ladje slomile bure i vjetrovi, bure i vjetrovi
Komentari

gitaristx kaže:

28-07-2009 18:13

Axe_cro kaže:

krivo

21-08-2009 12:28

ja_slash kaže:

ritam??

28-06-2012 12:41