Film

Doci Ću Ti U Snovima /verzija 2/

by:

Pronađi akord!

Ne znaš kako odsvirati neki od akorda pjesmi Doci Ću Ti U Snovima /verzija 2/? Upiši akord u tražilicu i saznaj!

Traženi akord će se prikazati ovdje

Od istog izvođača

Pregledano 16261 puta
Pregledano 43454 puta
Pregledano 15839 puta
Pregledano 20547 puta
Pregledano 3272 puta
Trebaš ritam za ovu pjesmu? Pronađi ga ovdje
Akordi/Tabovi:
Glavna melodija, ponavlja se kroz strofe.

Dm       C        Dm               F                C
|----1-------0---|--------1-------|--------1-------|--------0-------
|--3---3---1---1-|----3-----3-----|----1-----1---1-|----1-----1-----
|----------------|--2---2---------|--2---2-----2---|--0---0---------
|0---------------|0-----------0-2-|3---------------|------------0-2-
|--------3-------|----------------|----------------|3---------------
|----------------|----------------|----------------|----------------

F                 C                                 Dm
|--------1-------|--------0-------|----------------|--------1-------
|----1-----1---1-|----1-----1---1-|----------------|----3-----3---3-
|--2---2-----2---|--0---0-----0---|----------------|--2---2-----2---
|3---------------|----------------|-----0-2-3---2--|0---------------
|----------------|3---------------|---3------------|----------------
|----------------|----------------|----------------|----------------

Dm  C  Dm  F          C
Je__di_na, ponoc odzvanja
F            C
jesi li zaspala
C           Dm
na ruci dragoga.

Znas li tu sam ja
provodim noc bez sna
ispod tvoga prozora
kraj tvojih uzdaha.

Ajde sklopi oci
nestani u san
doci cu ti u snovima
kad noc proguta dan.

F            C
Doci cu ti u snovima
Dm              B
kad noc proguta dan
F           C
past cu kao kaplja rose
Dm             B
njezno na tvoj dlan.

Doci cu ti u snovima
da ti ukradem poljubce
neka vrijeme samo leti
jos uvjek volim te.

Onda jutro je
tiho budis se
pogledas covjeka
sto spava kraj tebe.

Onda zaplaces
jer to nisam ja
koga si voljela
prekasno jedina.

Ali ne placi
cekaj do veceri
kad zvijezde na nebu zasjaju
mi cemo se ljubiti.

Doci cu ti u snovima
kad noc proguta dan
past cu kao kaplja rose
njezno na tvoj dlan.

Doci cu ti u snovima
da ti ukradem poljubce
neka vrijeme samo leti
jos uvjek volim te.

Doci cu ti u snovima
kad noc proguta dan
past cu kao kaplja rose
njezno na tvoj dlan.

Doci cu ti u snovima
da ti ukradem poljubce
neka vrijeme samo leti
jos uvjek volim te.
Komentari

tiramisu10 kaže:

E da, dobro je ovo, ja bas skidao, pa ajde da uporedim :)

Dm C Dm F C
|----1-------0---|--------1-------|--------1-------|--------0-------
|------3---1---1-|----3-----3-----|----1-----1---1-|----1-----1-----
|--2-------------|--2---2---------|--2---2-----2---|--0---0---------
|0---------------|0-----------0-2-|3---------------|------------0-2-
|--------3-------|----------------|----------------|3---------------
|----------------|----------------|----------------|----------------

10-12-2009 19:38

tiramisu10 kaže:

E vraga, ode prethodni komentar greskom, a izgleda da ne moze da se menja, evo ponovo sve :)

|----1-------0---|--------1-------|--------1-------|--------0-------
|------3-------1-|----3-----------|----1-----1---1-|----1-----1-----
|--2-------0-----|--2---2---------|--2---2-----2---|--0---0---------
|0---------------|0-----------0-2-|3---------------|------------0-2-
|--------3-------|----------------|----------------|3---------------
|----------------|----------------|----------------|----------------

|--------1-------|--------0-------|-----------------|--------1-------
|----1-----1---1-|----1-----1---1-|-----------------|----3-----3---3-
|--2---2-----2---|--0---0-----0---|-----------------|--2---2-----2---
|3---------------|----------------|-----0-2-3p2-2p0-|0---------------
|----------------|3---------------|---3-------------|----------------
|----------------|----------------|-----------------|----------------

10-12-2009 19:43

tiramisu10 kaže:

#@%&&#%&!@#%&!!!
Pa sto se ovo izguzva ovako??

10-12-2009 19:44

Gruvy kaže:

Kod unašanja tabova treba korisititi monospace font. U ovom okviru za komentiranje imaš ikonu za tekstualno oblikovanje. Nađi i klikni onaj dio gdje pišu "Akordi/tabovi" i onda između oznaka code i /code unesi tablature. Ovako bi izgledao tvoj tab:

Akordi/Tabovi:
|----1-------0---|--------1-------|--------1-------|--------0-------
|------3-------1-|----3-----------|----1-----1---1-|----1-----1-----
|--2-------0-----|--2---2---------|--2---2-----2---|--0---0---------
|0---------------|0-----------0-2-|3---------------|------------0-2-
|--------3-------|----------------|----------------|3---------------
|----------------|----------------|----------------|----------------

|--------1-------|--------0-------|-----------------|--------1-------
|----1-----1---1-|----1-----1---1-|-----------------|----3-----3---3-
|--2---2-----2---|--0---0-----0---|-----------------|--2---2-----2---
|3---------------|----------------|-----0-2-3p2-2p0-|0---------------
|----------------|3---------------|---3-------------|----------------
|----------------|----------------|-----------------|----------------

11-12-2009 13:34