Marijan Ban

Morska Vila (solo)

by: Marijan ban

Pronađi akord!

Ne znaš kako odsvirati neki od akorda pjesmi Morska Vila (solo)? Upiši akord u tražilicu i saznaj!

Traženi akord će se prikazati ovdje

Od istog izvođača

Pregledano 12495 puta
Pregledano 7164 puta
Pregledano 17176 puta
Pregledano 7926 puta
Pregledano 17382 puta
Trebaš ritam za ovu pjesmu? Pronađi ga ovdje
Verzija iz C-dura:
Akordi/Tabovi:
------------12-13^12------------15>-----15----13----12-------]
-13>-----13----------13>-------------13----13----13----15-13-]
------12------------------12°>-------------------------------]
-------------------------------------------------------------]
-------------------------------------------------------------]

Verzija iz G-dura(ide isto samo cijli solo prebacite na 8. polje):
---------7-8^7----------10>----10---8---7------]
-8>----8-------8>------------8----8---8---10-8-]
-----7-------------7°>-------------------------]
-----------------------------------------------]
-----------------------------------------------]


Legenda:
>-duga nota
^-legato
°-podignut zicu za pola tona i vratiti na pocetni

P.S. nadam se da vam je ovo pomoglo
Komentari

ricardo kaže:

naravno da da
_bandana

09-09-2009 21:55

haris kaže:

^-legato?? Možda si htio reći Pull Off?? Ako nisi izvinjavam se :D

09-09-2009 23:07

Dario13dexy kaže:

Nez sta tocno znaci Pull Off...al mislio sam na ono kad kad npr. imas dva tona i odsviras samo prvi a drugi ton samo stavis prst bez da opet odsviras zicu (valjda si na to mislio). Evo ispricavam se ako si to mislio pod Pull Off al sam se nakek naucio na legato! :D

17-09-2009 17:17

jackomodo kaže:

pull on je a ne pull of
usput ne ide
------------12-13^12------------15>-----15----13----12-------]
-13>-----13----------13>-------------13----13----13----15-13-]
------12------------------12°>-------------------------------]
-------------------------------------------------------------]
-------------------------------------------------------------]
nego
------------12-13^12------------15>-----15----13----12-------]
-13>-----13----------13>-------------12----12----12----15-13-]
------12------------------12°>-------------------------------]
-------------------------------------------------------------]
-------------------------------------------------------------]

30-05-2011 14:28

gitara97 kaže:

moze solo sa kraja pisme?

15-02-2012 17:49