Plavi Orkestar

Sava Tiho Teče /Solo/

by: cile_portret_gitara

Pronađi akord!

Ne znaš kako odsvirati neki od akorda pjesmi Sava Tiho Teče /Solo/? Upiši akord u tražilicu i saznaj!

Traženi akord će se prikazati ovdje

Od istog izvođača

Pregledano 7486 puta
Pregledano 93111 puta
Pregledano 6149 puta
Pregledano 3727 puta
Pregledano 9077 puta
Trebaš ritam za ovu pjesmu? Pronađi ga ovdje
Akordi/Tabovi:
Am     Dm    G       C Dm G C Dm F  E
e|----------0-1-5_3-3_0-0--5-3-0-------------------
H|----0-1-3----------------------3-1-3-3->5-3-1-0--
G|--2----------------------------------------------
D|-------------------------------------------------
A|-------------------------------------------------
E|-------------------------------------------------

    Am     Dm   G       C Dm G C Dm F  E
e|----------0-1-5_3-3_0-0--5-3-0----------
H|----0-1-3----------------------3-1-3-0--
G|--2-------------------------------------
D|----------------------------------------
A|----------------------------------------
E|----------------------------------------
Komentari

Zero_One13 kaže:

super...

17-03-2010 21:49