Van Halen

Not Enough (solo)

by: anakonda

Pronađi akord!

Ne znaš kako odsvirati neki od akorda pjesmi Not Enough (solo)? Upiši akord u tražilicu i saznaj!

Traženi akord će se prikazati ovdje

Od istog izvođača

Pregledano 1022 puta
Pregledano 887 puta
Pregledano 1566 puta
Pregledano 1531 puta
Pregledano 2417 puta
Trebaš ritam za ovu pjesmu? Pronađi ga ovdje
Akordi/Tabovi:
legend

b = full bend
r = relase note from bend
hfb = half bend
p = pull off
h = hammer on
br = bend full + release
b(_)r = bend note to nuber in brackets and release back down
(ps) = pick sqeel or pinch harmonic
~ = vrabrato
/ = slide
w = whammy bar

standard tuning

E A D G B E

e|---------------------------------------------------------------------------------------|
B|-13b~-10-----------13------------------------------------------------------------------|
G|---------12b(13)r~----12-10-12-12b--10-12b-12b-12b-12hfb-12-10-12hfb-12-10-10hfb-10----|
D|------------------------------------------------------------------------------------12-|
A|---------------------------------------------------------------------------------------|
E|---------------------------------------------------------------------------------------|

           <---(ps)---->
e|----------------------------------------------------------------------15---------------|
B|-----------------------------------------------------------13h15--18b----18b(20)r------|
G|----5-7b---7b-7b-7b-7b----------------------------12br---------------------------------|
D|-/7--------------------5\3-3-3-3---------------10-----10-------------------------------|
A|---------------------------------5-3-5-5-5-/11-----------12----------------------------|
E|---------------------------------------------------------------------------------------|

e|--------------------------------------20br---17----------------------------------------|
B|-15----18p15h18b(21)r-15h18p15-----17-----------20b-20b-20b-20hfb-20hfb----------------|
G|----17-------------------------/19--------------------------------------18/10-10-10-10-|
D|---------------------------------------------------------------------------------------|
A|---------------------------------------------------------------------------------------|
E|---------------------------------------------------------------------------------------|

e|---------------------------------------------------------------------------------------|
B|-------------------------------------------6b-6----------------------------------------|
G|-------10b-10----5-7-7b(8.5)r-5h7p5----5-7------7--------------------------------------|
D|-12-10--------12--------------------/7--------------------------------3h5p3h5p3h5p3h5--|
A|--------------------------------------------------3h5p0-3p0-5p0-3p0-5------------------|
E|---------------------------------------------------------------------------------------|

e|----------------------------------10/13-10-15p13-17p15-20p17-20br--17-----20-20w-20----|
B|--------------------------7/13p10-------------------------------------20b----20w----20w|
G|-------------------5/10p7--------------------------------------------------------------|
D|-5hfb-5-3----3/7p5---------------------------------------------------------------------|
A|----------5----------------------------------------------------------------------------|
E|---------------------------------------------------------------------------------------|

e|----------17-----6/10----------10------------------------------------------------------|
B|-18----20----18--6----10-14hfb----13p10---------------------18-20-20-20br-18-----20b---|
G|----19----------------------------------12b-12hfbr-10h12/19------------------19--------|
D|---------------------------------------------------------------------------------------|
A|---------------------------------------------------------------------------------------|
E|---------------------------------------------------------------------------------------|
Komentari
Još nema komentara