Bad Company

Holy Water

by: anakonda

Pronađi akord!

Ne znaš kako odsvirati neki od akorda pjesmi Holy Water? Upiši akord u tražilicu i saznaj!

Traženi akord će se prikazati ovdje

Od istog izvođača

Pregledano 2591 puta
Pregledano 2668 puta
Pregledano 2181 puta
Pregledano 1564 puta
Pregledano 2453 puta
Trebaš ritam za ovu pjesmu? Pronađi ga ovdje
Akordi/Tabovi:
Intro

|--------|
|--------|
|--------|
|0h2tr---|<--TRILL
|--------|
|--------|

Main Riff/Verse

|-----------------------------------|
|-----------------------------------|
|--------------0-0-2----------------|
|--2-----------0-0-2-----2----------|x6
|----2---------x-x-0-------2--------|
|0-----0-3b-0--3-3-----0-----0-3b-0-|

|-----------------|
|---------------3-|
|0h2-2-2-2----x-2-|
|0h2-2-2-2----x-0-|x2
|0-0-0-0-0----x-0-|
|-----------------|

|-----------------------------------|
|-----------------------------------|
|--------------0-0-2----------------|
|--2-----------0-0-2-----2----------|
|----2---------x-x-0-------2--------|
|0-----0-3b-0--3-3-----0-----0-3b-0-|


PRE-CHORUS

|-------------------|-------------------------|
|-------------------|-------------------------|
|4-4--5-5--7-7--7-7-|--4-4--5-5--7-7--7-7-7-7-|
|4-4--5-5--7-7--7-7-|--4-4--5-5--7-7--7-7-7-7-|
|2-2--3-3--5-5--5-5-|--2-2--3-3--5-5--5-5-5-5-|
|-------------------|-------------------------|

CHORUS(*listen to the song and follow the lyrics for correct timing*)

|-----------------------------------------|
|-----------------------------------------|
|---9----7----2-2--------------5---7------|
|2--9----7----2-2--------------5---7------|
|2--7----5----0-0--------------3---5------|
|0----------------------------------------|
   Feels like   I'm walkin' on Holy Water!

pm...
|----------------------------------------------------|
|----------------------------------------------------|
|-----9-----7-------2-2-----------------------5---7--|
|-----9-----7-------2-2-----------------------5---7--|
|-----7-----5-------0-0-----------------------3---5--|
|0-00------------------------------------------------|
      Feels like  I'm walkin' on sacred ground, baby!

|------------------------------------------|
|------------------------------------------|
|----9----7----2-2--------------5---7------|
|----9----7----2-2--------------5---7------|
|----7----5----0-0--------------3---5------|
|0-0---------------------------------------|
    Feels like   I'm walkin' on Holy Water!

pm........................
|--------------------------|-------------|
|--------------------------|-------------|
|5-5-5-5-5-5-5-5-7-7-7-7-7-|12b-12b------|
|5-5-5-5-5-5-5-5-7-7-7-7-7-|--------14~/-|
|3-3-3-3-3-3-3-3-5-5-5-5-5-|-------------|
|--------------------------|-------------|

VERSE 2

|-----------------------------------|
|-----------------------------------|
|--------------0-0-2----------------|
|--2-----------0-0-2-----2----------|x4
|----2---------x-x-0-------2--------|
|0-----0-3b-0--3-3-----0-----0-3b-0-|

|-----------------|
|---------------3-|
|0h2-2-2-2----x-2-|
|0h2-2-2-2----x-0-|x2
|0-0-0-0-0----x-0-|
|-----------------|

|-----------------------------------|
|-----------------------------------|
|--------------0-0-2----------------|
|--2-----------0-0-2-----2----------|
|----2---------x-x-0-------2--------|
|0-----0-3b-0--3-3-----0-----0-3b-0-|

PRE-CHORUS

|-------------------|-------------------------|
|-------------------|-------------------------|
|4-4--5-5--7-7--7-7-|--4-4--5-5--7-7--7-7-7-7-|
|4-4--5-5--7-7--7-7-|--4-4--5-5--7-7--7-7-7-7-|
|2-2--3-3--5-5--5-5-|--2-2--3-3--5-5--5-5-5-5-|
|-------------------|-------------------------|

CHORUS(*listen to the song and follow the lyrics for correct timing*)

|-----------------------------------------|
|-----------------------------------------|
|---9----7----2-2--------------5---7------|
|2--9----7----2-2--------------5---7------|
|2--7----5----0-0--------------3---5------|
|0----------------------------------------|
   Feels like   I'm walkin' on Holy Water!

pm...
|----------------------------------------------------|
|----------------------------------------------------|
|-----9-----7-------2-2-----------------------5---7--|
|-----9-----7-------2-2-----------------------5---7--|
|-----7-----5-------0-0-----------------------3---5--|
|0-00------------------------------------------------|
      Feels like  I'm walkin' on sacred ground, baby!

|------------------------------------------|
|------------------------------------------|
|----9----7----2-2--------------5---7------|
|----9----7----2-2--------------5---7------|
|----7----5----0-0--------------3---5------|
|0-0---------------------------------------|
    Feels like   I'm walkin' on Holy Water!

pm..............................
|--------------------------------|
|--------------------------------|
|5-5-5-5-5-5-5-5-7-7-7-7-7-7-7-7-|
|5-5-5-5-5-5-5-5-7-7-7-7-7-7-7-7-|
|3-3-3-3-3-3-3-3-5-5-5-5-5-5-5-5-|
|--------------------------------|

BRIDGE

pm                                   .
|----------------------------------------------|
|----------------------------------------------|
|-2-2---------2-2--------9-7/9----9--7/9-9~~~--|
|-2-2---------2-2--------9-7/9----9--7/9-9~~~--|
|-0-0---------0-0------2-----------------------|
|------0-3b-0-----0-3b-0-----------------------|

|----------------------------------------------|
|---------------------------------prb10--8-10--|
|-2-2---------2-2---------9--7~~~--------------|
|-2-2---------2-2---------9--7~~~--------------|
|-0-0---------0-0-------2----------------------|
|------0-3b-0------0-3b-0----------------------|

|----------------------------------------------|
|----------------------------------------------|
|-2-2---------2-2--------9-7/9----9--7/9-9~~~--|
|-2-2---------2-2--------9-7/9----9--7/9-9~~~--|
|-0-0---------0-0------2-----------------------|
|------0-3b-0-----0-3b-0-----------------------|

pm...............................
|--------------------------------|
|--------------------------------|
|5-5-5-5-5-5-5-5-7-7-7-7-7-7-7-7-|
|5-5-5-5-5-5-5-5-7-7-7-7-7-7-7-7-|
|3-3-3-3-3-3-3-3-5-5-5-5-5-5-5-5-|
|--------------------------------|

**********SOLO!!!!!!!!!!!!!!!!!!(will be posted in near future!)**********
  -Rhythm Plays Main Riff During Solo!

PRE-CHORUS

|-------------------|-------------------------|
|-------------------|-------------------------|
|4-4--5-5--7-7--7-7-|--4-4--5-5--7-7--7-7-7-7-|
|4-4--5-5--7-7--7-7-|--4-4--5-5--7-7--7-7-7-7-|
|2-2--3-3--5-5--5-5-|--2-2--3-3--5-5--5-5-5-5-|
|-------------------|-------------------------|

CHORUS(*listen to the song and follow the lyrics for correct timing*)

|-----------------------------------------|
|-----------------------------------------|
|---9----7----2-2--------------5---7------|
|2--9----7----2-2--------------5---7------|
|2--7----5----0-0--------------3---5------|
|0----------------------------------------|
   Feels like   I'm walkin' on Holy Water!

pm...
|----------------------------------------------------|
|----------------------------------------------------|
|-----9-----7-------2-2-----------------------5---7--|
|-----9-----7-------2-2-----------------------5---7--|
|-----7-----5-------0-0-----------------------3---5--|
|0-00------------------------------------------------|
      Feels like  I'm walkin' on sacred ground, baby!

|------------------------------------------|
|------------------------------------------|
|----9----7----2-2--------------5---7------|
|----9----7----2-2--------------5---7------|
|----7----5----0-0--------------3---5------|
|0-0---------------------------------------|
    Feels like   I'm walkin' on Holy Water!


FADE OUT WITH CHORUS!!
Komentari
Još nema komentara