Bad Company

Feel Like Making Love

by: anakonda

Pronađi akord!

Ne znaš kako odsvirati neki od akorda pjesmi Feel Like Making Love? Upiši akord u tražilicu i saznaj!

Traženi akord će se prikazati ovdje

Od istog izvođača

Pregledano 3203 puta
Pregledano 2671 puta
Pregledano 2185 puta
Pregledano 3641 puta
Pregledano 2594 puta
Trebaš ritam za ovu pjesmu? Pronađi ga ovdje
Akordi/Tabovi:
intro
    v  v    ^  v  ^  v  ^ v ^ v   v   v  v   ^  v  ^  v   ^ v ^ v    v
e|--14-14--12-12-12-12--7-7-7-7h8-7-|-14-14--12-12-12-12--7-7-7-7h8--2-|
B|--15-15--13-13-13-13--8-8-8-8---8-|-15-15--13-13-13-13--8-8-8-8----3-|
G|--14-14--12-12-12-12--7-7-7-7---7-|-14-14--12-12-12-12--7-7-7-7----2-|
D|----------------------------------|----------------------------------|
A|----------------------------------|----------------------------------|
E|----------------------------------|----------------------------------|

verse:
D                   G                         D          G
baby,  when i think about you,  i think about looooooove
D                    G                            D         G
darlin, when i live without you,  i live with out looooooove
D                   G                D                   G
if i have those golden dreams, of my yesterdaaaaaaaaaaaaaaaaay

i would wrap you in the heavens,  till i'm dying on the way

chours:                            repeat three times
e------------------------------------------|
B------------------------------------------|
G-----------------------------------------o|
D-5--7---7----5--7---7----5--7---7--------o|
A-3--5---5----3--5---5----3--5---5----5-3--|
E-------------------------------------3-1--|
                          feel like making love

e--------------------------------------------|
B--------------------------------------------|
G--------------------------------------------|
D-----------5--7-----------7-----------------|
A-----------3--5---5----3--5-----------------|
E------------------3----1--------------------|
  feel like making love to you

verse:2

baby,  if i think about you,  i think about looooooooooove

darling,  if i live without you,  i live without loooooove

and if i had it,  the sun and moon and they were shining shining
                                                   shining

i would give you both night and day,  feel love satisfyyyyyying

cours:

verse:3
e----------------------------------------------------------------|
B----------------------------------------------------------------|
G--------2-0-------0-4---2h4p2-0----------2-0------0-4--2h4p2-0--|
D-4--2h4-0-0---2h4-0-0---0-----0---4--2h4-0-0--2h4---0--0-----0--|
A-5--------------------------------5-----------------------------|
E----------------------------------------------------------------|

verse:4

and if i had those golden dreams,  of my yesterdaaaaaayyy

i would wrap you in the heavens, fell thier dying on the waaaay

cours:

cours:played under solo
solo:
e-16b-14----------------16b-14----------------16b-16b-16b-14----------|
B--------15-------15-15--------15-------15-15----------------15-------|
G-----------14h15-----------------14h15-------------------------14-15-|
D---------------------------------------------------------------------|
A---------------------------------------------------------------------|
E---------------------------------------------------------------------|

e-------14-16-15-------------16b-14----------------|
B-15-15----------------14-15--------15-------15-15-|
G----------------14-15-----------------14h15-------|
D--------------------------------------------------|
A--------------------------------------------------|
E--------------------------------------------------|
Komentari
Još nema komentara