Bad Company

Bad Company

by: anakonda

Pronađi akord!

Ne znaš kako odsvirati neki od akorda pjesmi Bad Company? Upiši akord u tražilicu i saznaj!

Traženi akord će se prikazati ovdje

Od istog izvođača

Pregledano 3306 puta
Pregledano 3673 puta
Pregledano 2697 puta
Pregledano 2628 puta
Pregledano 2201 puta
Trebaš ritam za ovu pjesmu? Pronađi ga ovdje
Akordi/Tabovi:
Tuning:standard

       This is the piano part......
e|-----------------------------------------------------------|
B|-----------------------------------------------------------|
G|-----------------------------------------------------------|
D|-----------------------------------------------------------|
A|-1-4-6---9-8-6-4-1--------1-4-6---9-8-4-8-6----------------|
E|-----------------------------------------------------------|

        Chorus......
e|-----------------------------------------------------------|
B|-------------"bad company"---"i cant deny"-----------------|
G|--8-------6------------------------------------8--6--8-----|
D|--8---4---6---------------6--------------------8--6--8-----|
A|--6---4---4---------------6--------------------6--4--6-----|
E|------2-------------------4--------------------------------|


e|-----------------------------------------------------------|
B|-------------"bad company"---"till the day i die"----------|
G|--8-------6------------------------------------8--6--8-----|
D|--8---4---6---------------6--------------------8--6--8-----|
A|--6---4---4---------------6--------------------6--4--6-----|
E|------2-------------------4--------------------------------|
Komentari
Još nema komentara