Bob Dylan

House Of The Rising Sun

by:

Pronađi akord!

Ne znaš kako odsvirati neki od akorda pjesmi House Of The Rising Sun? Upiši akord u tražilicu i saznaj!

Traženi akord će se prikazati ovdje

Od istog izvođača

Pregledano 3331 puta
Pregledano 4741 puta
Pregledano 2049 puta
Pregledano 2480 puta
Pregledano 2842 puta
Trebaš ritam za ovu pjesmu? Pronađi ga ovdje
Akordi/Tabovi:
Am                              G
e|-----0--0--0--0-----0--0--0--0-------0--0--0--0-----0--0--0--0-------------|
B|-----1--1--1--1-----1--1--1--1-------1--1--1--1-----1--1--1--1-------------|
G|-----2--2--2--2-----2--2--2--2-------0--0--0--0-----0--0--0--0-------------|
D|-----2--2--2--2-----2--2--2--2-------2--2--2--2-----2--2--2--2-------------|
A|--0--------------0-------------------3--3--3--3-----3--3--3--3-------------|
E|----------------------------------3--------------3-------------------------|



   D/F#?                            F
e|---------------------------------------------------------------------------|
B|-----3--3--3--3-----3--3--3--3-------1--1--1--1-----1--1--1--1-------------|
G|-----2--2--2--2-----2--2--2--2-------2--2--2--2-----2--2--2--2-------------|
D|-----0--0--0--0-----0--0--0--0-------3--3--3--3-----3--3--3--3-------------|
A|-----0--0--0--0-----0--0--0--0-------3--3--3--3-----3--3--3--3-------------|
E|--2--------------2----------------1--------------1-------------------------|



   Am                               E
e|-----0--0--0--0-----0--0--0--0---------------------------------------------|
B|-----1--1--1--1-----1--1--1--1-------0--0--0--0-----0--0-------------------|
G|-----2--2--2--2-----2--2--2--2-------1--1--1--1-----1--1-------------------|
D|-----2--2--2--2-----2--2--2--2-------2--2--2--2-----2--2-------------------|
A|--0--------------0-------------------2--2--2--2-----2--2-------------------|
E|----------------------------------0--------------0--------0h3--------------|



    Am
e|-----0--0--0--0-----0--0----------0--0--0--0-----0--0--0--0----------------|
B|-----1--1--1--1-----1--1----------1--1--1--1-----1--1--1--1----------------|
G|-----2--2--2--2-----2--2----------2--2--2--2-----2--2--2--2----------------|
D|-----2--2--2--2-----2--2--0h2-----2--2--2--2-----2--2--2--2----------------|
A|--0--------------0-------------0--------------0----------------------------|
E|---------------------------------------------------------------------------|

 
   "There is...."
    Am                              G
e|-----0--0--0--0-----0--0--0--0-------0--0--0--0-----0--0--0--0--------------|
B|-----1--1--1--1-----1--1--1--1-------1--1--1--1-----1--1--1--1-------------|
G|-----2--2--2--2-----2--2--2--2-------0--0--0--0-----0--0--0--0-------------|
D|-----2--2--2--2-----2--2--2--2-------2--2--2--2-----2--2--2--2-------------|
A|--0--------------0-------------------3--3--3--3-----3--3--3--3-------------|
E|----------------------------------3--------------3-------------------------|



   D/F#?                            F
e|---------------------------------------------------------------------------|
B|-----3--3--3--3-----3--3--3--3-------1--1--1--1-----1--1--1--1-------------|
G|-----2--2--2--2-----2--2--2--2-------2--2--2--2-----2--2--2--2-------------|
D|-----0--0--0--0-----0--0--0--0-------3--3--3--3-----3--3--3--3-------------|
A|-----0--0--0--0-----0--0--0--0---3---3--3--3--3-----3--3--3--3-------------|
E|--2--------------2-------------------------------1-------------------------|



    Am                              G
e|-----0--0--0--0-----0--0--0--0-------0--0--0--0-----0--0--0--0-------------|
B|-----1--1--1--1-----1--1--1--1-------1--1--1--1-----1--1--1--1-------------|
G|-----2--2--2--2-----2--2--2--2-------0--0--0--0-----0--0--0--0-------------|
D|-----2--2--2--2-----2--2--2--2-------2--2--2--2-----2--2--2--2-------------|
A|--0--------------0-------------------3--3--3--3-----3--3--3--3-------------|
E|----------------------------------3--------------3-------------------------|



    E
e|---------------------------------------------------------------------------|
B|-----0--0--0--0-----0--0----------0--0--0--0-----0--0--0--0----------------|
G|-----1--1--1--1-----1--1--0h1-----1--1--1--1-----1--1--1--1----------------|
D|-----2--2--2--2-----2--2----------2--2--2--2-----2--2--2--2----------------|
A|-----2--2--2--2-----2--2----------2--2--2--2-----2--2--2--2----------------|
E|--0--------------0-------------0--------------0----------------------------|



    Am                              G
e|-----0--0--0--0-----0--0--0--0-------0--0--0--0-----0--0--0--0-------------|
B|-----1--1--1--1-----1--1--1--1-------1--1--1--1-----1--1--1--1-------------|
G|-----2--2--2--2-----2--2--2--2-------0--0--0--0-----0--0--0--0-------------|
D|-----2--2--2--2-----2--2--2--2-------2--2--2--2-----2--2--2--2-------------|
A|--0--------------0-------------------3--3--3--3-----3--3--3--3-------------|
E|----------------------------------3--------------3-------------------------|



   D/F#?                            F
e|---------------------------------------------------------------------------|
B|-----3--3--3--3-----3--3--3--3-------1--1--1--1-----1--1--1--1-------------|
G|-----2--2--2--2-----2--2--2--2-------2--2--2--2-----2--2--2--2-------------|
D|-----0--0--0--0-----0--0--0--0-------3--3--3--3-----3--3--3--3-------------|
A|-----0--0--0--0-----0--0--0--0---3---3--3--3--3-----3--3--3--3-------------|
E|--2--------------2-------------------------------1-------------------------|



   Am                               E
e|-----0--0--0--0-----0--0--0--0---------------------------------------------|
B|-----1--1--1--1-----1--1--1--1-------0--0--0--0-----0--0--0--0-------------|
G|-----2--2--2--2-----2--2--2--2-------1--1--1--1-----1--1--1--1-------------|
D|-----2--2--2--2-----2--2--2--2-------2--2--2--2-----2--2--2--2-------------|
A|--0--------------0-------------------2--2--2--2-----2--2--2--2-------------|
E|----------------------------------0--------------0-------------------------|



   
   Am                               G                  D/F#?
e|-----0--0--0--0-----0--0--0--0----0--0--0--0--0--0----0--0--0--0--0--0-----|
B|-----1--1--1--1-----1--1--1--1----1--1--1--1--1--1----3--3--3--3--3--3-----|
G|-----2--2--2--2-----2--2--2--2----0--0--0--0--0--0----2--2--2--2--2--2-----|
D|-----2--2--2--2-----2--2--2--2----2--2--2--2--2--2----0--0--0--0--0--0-----|
A|--0--------------0----------------3--3--3--3--3--3----0--0--0--0--0--0-----|
E|----------------------------------3--3--3--3--3--3----2--2--2--2--2--2-----|


    F                  Am                               E
e|-------------------------0--0--0--0-----0--0--0--0-------------------------|
B|--1--1--1--1--1--1-------1--1--1--1-----1--1--1--1-------0--0--0--0--------|
G|--2--2--2--2--2--2-------2--2--2--2-----2--2--2--2-------1--1--1--1--------|
D|--3--3--3--3--3--3-------2--2--2--2-----2--2--2--2-------2--2--2--2--------|
A|--3--3--3--3--3--3----0--------------0-------------------2--2--2--2--------|
E|--1--1--1--1--1--1------------------------------------0--------------------|



    E
e|---------------------------------------------------------------------------|
B|-----0--0--0--0------------------------------------------------------------|
G|-----1--1--1--1------------------------------------------------------------|
D|-----2--2--2--2------------------------------------------------------------|
A|-----2--2--2--2------------------------------------------------------------|
E|--0------------------------------------------------------------------------|


     Thats pretty much it. Finally a tab for this song that isn't for the animals version.

Lyrics:

There is a house down in new orleans
They call the risin' sun
And it's been the ruin of many a poor girl
And me, oh god, I'm a-one

My mother was a tailor
She sewed these new blue jeans
My sweetheart was a gambler, lord
Down in new orleans

Now the only thing a gambler needs
Is a suitcase and a trunk
And the only time he's satisfied
Is when he's on a drunk

He fills his glasses up to the brim
And he'll pass the cards around
And the only pleasure he gets out of life
Is ramblin' from town to town

Oh tell my baby sister
Not to do what I have done
But shun that house in new orleans
They call the risin' sun

Well, it's one foot on the platform
And the other foot on the train
I'm goin' back to new orleans
To wear that ball and chain

I'm a-goin' back to new orleans
My race is almost run
I'm goin' back to end my life
Down in the risin' sun

There is a house in new orleans
They call the risin' sun
It's been the ruin of many poor girl
And me, oh god, I'm a-one
Komentari
Još nema komentara