Vatra

Dno od suza

by: Ivan Kapov

Pronađi akord!

Ne znaš kako odsvirati neki od akorda pjesmi Dno od suza? Upiši akord u tražilicu i saznaj!

Traženi akord će se prikazati ovdje

Od istog izvođača

Pregledano 6141 puta
Pregledano 3453 puta
Pregledano 7645 puta
Pregledano 5798 puta
Pregledano 2223 puta
Trebaš ritam za ovu pjesmu? Pronađi ga ovdje
Akordi/Tabovi:
Struktura pjesme "Dno od suza":
-INTRO
-VERSE  1
-CHORUS 1
-VERSE  2
-CHORUS 2
-SOLO
-VERSE  3
-CHORUS 3
-OUTRO


INTRO & VERSE 1 :
-u uvodu imamo nekoliko zapisa, vecinom klavijature
i elektronski zvukovi
-uvod i prva kitica su doslovno povezani, tako da cemo ih
obraditi u istoj sekciji "intro & verse 1"
-oznake povise tablatura oznacavaju kad se, tj. na kojem
djelu pjesme svira pojedini "fill"


-pjesma pocinje s klavijaturame (strings) koje drze dugo ton G i
prebacuju ga na F# i ponovo na G.
-ovako dugo trajanje tona cete dobiti samo koristeci jaku distorziju ili
dobro nastimani delay, ali u svakom slucaju ce zvuk biti drugaciji.
-sve skupa do refrena se ponavlja 6 puta
-ako svirate klavijature-uvod na gitari:

(6x) (sve do refrena)
e---------------------------------------------------------|
h---------------------------------------------------------|
g--12-~--(hold)-------------11---12-~--(hold)-------------|
d---------------------------------------------------------|
a--10-~--(hold)-------------9----10-~--(hold)-------------|
e---------------------------------------------------------|
-kad svirate zajedno iste tonove kao u gornjem primjeru
uzmite u obzir da vam gitara mora biti savrseno ustimana,
u protivnom zvuk nece biti prirodan (preporucujem elektronski tuner)



00:10
e------3-2---------------------|
h----------3-------------------|
g----0-------------------------|
d------------------------------|
a------------------------------|
e------------------------------|
-ovaj mali "fill" je takoder sviran na klavijaturama, ali
ga vrlo lako mozete prilagoditi gitari, samo upotrebite clean zvuk.
-svira se odmah nakon sto klavijature promjene ton iz G na F#




  {elektronski zvukovi}
00:15        00:17
e----------|----------------|
h--1~~~~~--|----------------|
g----------|----------------|
d----------|----------------|
a----------|----5~~~~~~~----|
e----------|----------------|
-ovo gore su elektronski zvukovi koji se mogu cuti
kroz uvodni dio, probajte zice tresti malo
i dobiti cete zamjenski zvuk, jer
gitarom je zapravo ih nemoguce simulirati.
-ponavljaju se nekoliko puta kroz pjesmu




-svi daljni zapisi do refrena su originalno
svirani na klavijaturama, vrijeme kad pocinju je
oznaceno.
-elektronski zvukovi takoder se sviraju nekoliko
puta do refrena


00:20
e------3-2---------------------|
h----------3-------------------|
g----0-------------------------|
d------------------------------|
a------------------------------|
e------------------------------|



00:27
e--------2-3-------------------|
h----3-5-----------------------|
g------------------------------|
d------------------------------|
a------------------------------|
e------------------------------|



00:39
e------3-2---------------------|
h----------3-------------------|
g----0-------------------------|
d------------------------------|
a------------------------------|
e------------------------------|



00:47
e------3-2-------3-------------|
h----------3---3---------------|
g------------0-----------------|
d------------------------------|
a------------------------------|
e------------------------------|


00:56
e--------2-3-------------------|
h----3-5-----------------------|
g------------------------------|
d------------------------------|
a------------------------------|
e------------------------------|


ritam gitara:
-nje u prvoj kitici uopce nema,
ali je mozete vi svirati ako
pjesmu izvodite sami sa jednom
gitarom,
-akorde mozemo "izvuci" ako poslusamo
bass u prvoj kitici:

  G               G                 C               D
g---------------------------------|---------------------------------|
d-----------------5-5-5-5-5-5-5-5-|---------------------------------|
a---------------------------------|-3-3-3-3-3-3-3-3-5-5-5-5-5-5-5-5-|
e-3-3-3-3-3-3-3-------------------|---------------------------------|

-G koji duplo duze traje od tona C i D,
tako da prema akordima prva kitica izgleda ovako:


tekst:

    G
ja trazim jos samo jedan dan

    C                               D
da vratim stvari na pravo mjesto, da griznju savladam

   G                               C
ja sanjam jos samo jedan ples, na tuznom brodu

                 D
bez putnika, mi tonemo u gluhu noc

    G                       C
ja sanjam kako me umivas u jutru koje znaci kraj

      D
jer mirise na rijeci





CHORUS 1.
00:58

-svira se na jakoj distorziji, na dvije gitare ciji
je zvuk jos "pojacan" klavijaturama.
-gitara I i gitara II se sviraju u ISTO vrijeme.
-ispod crtovlja gitare I. u navodnicima je dio teksta koji ide uz
taj dio, tekst je postavljen samo radi lakse orijentacije
kroz transkripciju, NIJE uskladen s crtovljem.

gitara I
e-----------------------------------------------------|
h-----------------------------------------------------|
g-----------------------------------------------------|
d--7-7------7-7-7-7-7-7---s---2-2------2-2-2-2-2-2----|
a--7-7------7-7-7-7-7-7---s---2-2------2-2-2-2-2-2----|
e--5-5------5-5-5-5-5-5---s---0-0------0-0-0-0-0-0----|

"koje bole i koje ostavljaju trag"


-ove akorde (A5 i E5) svirajte na istim zicama tako
da mozete slide-ati ih kao sto gore pokazuje.
-obratite pozornost na razmak imedu akorda u zapisu
i dobro poslusajte pjesmu da dobijete tocan ritam

gitara II
e-----------------------------------------------------|
h-----------------------------------------------------|
g-----------------------------------------------------|
d-----------------------------------------------------|
a-----------------------------------------------------|
e-----------------------------------------------------|
-gitara II jos ne svira nista na ovom djelu



gitara I
e-----------------------------------------------------|
h-----------------------------------------------------|
g-----------------------------7-7-7-7-7-7-7-7-7-7-----|
d--7-7------7-7-7-7-7-7-------5-5-5-5-5-5-5-5-5-5-----|
a--7-7------7-7-7-7-7-7-------5-5-5-5-5-5-5-5-5-5-----|
e--5-5------5-5-5-5-5-5-------------------------------|

"koje bole, koje nas bacaju u more"

gitara II
e-----------------------------------------------------|
h-----------------------------------------------------|
g-----------------------------------------------------|
d-----------------------------------------------------|
a-----------------------------------------------------|
e-----------------------------------------------------|



gitara I.
e--------------------------------------------------------------8-----|
h--------------------------------------------------------------11b13-|
g--10-10-10-10----10-10-10-10---10----12-12--12-12-12-12-----9-x-----|
d--10-10-10-10----10-10-10-10---10----12-12--12-12-12-12-------x-----|
a---8--8--8--8-----8--8--8--8----8----10-10--10-10-10-10-------------|
e-------------------------------------------|------------------------|
"da tonemo"                                V
                                (pazite na ovaj razmak ovdje
                                 napravite malu kratku pauzu)

-obratite pozornost na razmak imedu akorda u zapisu
i dobro poslusajte pjesmu da dobijete tocan ritam
-akorde svirajte ostro i prekidajte ih desnom rukom, pogotovo
pazite na kratke pauze koje su jako bitne pri sviranju ovog djela

gitara II.
e--------------------------------------------------------------------|
h--------------------------------------------------------------------|
g--------------------------------------------------------------------|
d---3--3--3--3----3--3--3--3----3-----5--5----5--5--5--5-------------|
a---3--3--3--3----3--3--3--3----3-----3--3----3--5--5--5-------------|
e---1--1--1--1----1--1--1--1----1-----3--3----3--3--3--3-------------|

-svoju veliku ulogu igra ovdje i gitara II koja kao sto se vidi svira
iste akorde, samo nize na vratu gitare, ritam je identican s gitarom I.





gitara I.
e--------------------------------------------------------------8-----|
h--------------------------------------------------------------11b13-|
g--10-10-10-10----10-10-10-10---10----12-12--12-12-12-12-----9-x-----|
d--10-10-10-10----10-10-10-10---10----12-12--12-12-12-12-------x-----|
a---8--8--8--8-----8--8--8--8----8----10-10--10-10-10-10-------------|
e--------------------------------------------------------------------|
"dubina mijenja nasa lica"

gitara II.
e--------------------------------------------------------------------|
h--------------------------------------------------------------------|
g--------------------------------------------------------------------|
d---3--3--3--3----3--3--3--3----3-----5--5----5--5--5--5-------------|
a---3--3--3--3----3--3--3--3----3-----3--3----3--5--5--5-------------|
e---1--1--1--1----1--1--1--1----1-----3--3----3--3--3--3-------------|




gitara I.
e--------------------------------------------------------------8-----|
h--------------------------------------------------------------11b13-|
g--10-10-10-10----10-10-10-10---10----12-12--12-12-12-12-----9-x-----|
d--10-10-10-10----10-10-10-10---10----12-12--12-12-12-12-------x-----|
a---8--8--8--8-----8--8--8--8----8----10-10--10-10-10-10-------------|
e--------------------------------------------------------------------|
"dok tonemo"

gitara II.
e--------------------------------------------------------------------|
h--------------------------------------------------------------------|
g--------------------------------------------------------------------|
d---3--3--3--3----3--3--3--3----3-----5--5----5--5--5--5-------------|
a---3--3--3--3----3--3--3--3----3-----3--3----3--5--5--5-------------|
e---1--1--1--1----1--1--1--1----1-----3--3----3--3--3--3-------------|

gitara I.
e--------------------------------------------------------------------|
h--------------------------------------------------------------------|
g--10-10-10-10---10-10-10-10---10----12--12-------12--12-------------|
d--10-10-10-10---10-10-10-10---10----12--12-------12--12-------------|
a---8--8--8--8----8--8--8--8----8----10--10-------10--10-------------|
e--------------------------------------------------------------------|
"na slano dno od suza"

gitara II.
e--------------------------------------------------------------------|
h--------------------------------------------------------------------|
g--------------------------------------------------------------------|
d---3--3--3--3----3--3--3--3----3----5---5---------5--5--------------|
a---3--3--3--3----3--3--3--3----3----3---3---------5--5--------------|
e---1--1--1--1----1--1--1--1----1----3---3---------3--3--------------|

gitara I (ritam)
e------------------------------------------------------------2-----------|
h--------0----------------0----------------1---------------3-------------|
g------0------0---------0------0---------0------0--------2---------------|
d----2----------------2----------------2---------------0----------0------|
a--2---------------------------------3-----------------------------------|
e-------------------0----------------------------------------------------|
-upotrjebite malo distorzije i zadrzavajte tonove kako je oznaceno.
"ti i ja"

gitara II (solo)
e------------------------------------------------------------------------|
h-s17~(hold)-----------------------12-15~(hold)-----17-15~(hold)---------|
g------------------------------------------------------------------------|
d------------------------------------------------------------------------|
a------------------------------------------------------------------------|
e------------------------------------------------------------------------|

tekst:

      A             Em
koje bole i koje ostavljaju trag,
      A             D
koje bole, koje nas bacaju u more
    F    G
da to-ne-mo
  F           G
dubina mijenja nasa lica
     F    G
dok to-ne-mo
     F           G
na slano dno od suza
     Em    C  D
ti i ja

VERSE 2.
01:35

-konstanti zvuk drze klavijature, a gitara
svira samo male harmonics fillove, osim
zadnjeg na 01:49 koji se svira normalno.

01:36
__harmonics___
e--------------|
h-------7------|
g-----7---7----|
d---5----------|
a--(5)---------|
e--------------|

01:40
__harmonics___
e--------------|
h-------7------|
g-----7---7----|
d---5----------|
a--------------|
e--------------|

01:45
__harmonics___
e--------------|
h-------7------|
g-----7---7----|
d---5----------|
a--------------|
e--------------|

01:49
e--------2-3---|
h------3-----3-|
g--0-----------|
d----0---------|
a--------------|
e--------------|

teskt:

    G
ja sanjam jos samo jedan sat,
    C
na pucini bez rijeci
     D
mi slusamo tisinu
       G
koja prica, koja govori za nas
   C
u jutru koje znaci kraj,
     D
jer mirise na rijeci

CHORUS 2.
01:53

gitara I
e-----------------------------------------------------|
h-----------------------------------------------------|
g-----------------------------------------------------|
d--7-7------7-7-7-7-7-7---s---2-2------2-2-2-2-2-2----|
a--7-7------7-7-7-7-7-7---s---2-2------2-2-2-2-2-2----|
e--5-5------5-5-5-5-5-5---s---0-0------0-0-0-0-0-0----|
"koje bole i koje ostavljaju trag"

gitara II
e-----------------------------------------------8-----|
h-----------------------------------------------11b13-|
g-------------10b12~----------------------------x-----|
d--7-~~~----------------------------------------x-----|
a--7-~~~----------------------------------------------|
e--5-~~~----------------------------------------------|
-gitara II sad ubacuje gornje tonove za razliku
od prvog refrena

gitara I
e-----------------------------------------------------|
h-----------------------------------------------------|
g-----------------------------7-7-7-7-7-7-7-7-7-7-----|
d--7-7------7-7-7-7-7-7-------5-5-5-5-5-5-5-5-5-5-----|
a--7-7------7-7-7-7-7-7-------5-5-5-5-5-5-5-5-5-5-----|
e--5-5------5-5-5-5-5-5-------------------------------|
"koje bole, koje nas bacaju u more"

gitara II
e-----------------------------------------------------|
h-----------------------------------------------------|
g-------------10b12~----------------------------------|
d-----------------------------------------------------|
a-----------------------------------------------------|
e-----------------------------------------------------|

gitara I.
e--------------------------------------------------------------8-----|
h--------------------------------------------------------------11b13-|
g--10-10-10-10----10-10-10-10---10----12-12--12-12-12-12-----9-x-----|
d--10-10-10-10----10-10-10-10---10----12-12--12-12-12-12-------x-----|
a---8--8--8--8-----8--8--8--8----8----10-10--10-10-10-10-------------|
e--------------------------------------------------------------------|
"da tonemo"

gitara II.
e--------------------------------------------------------------------|
h--------------------------------------------------------------------|
g--------------------------------------------------------------------|
d---3--3--3--3----3--3--3--3----3-----5--5----5--5--5--5-------------|
a---3--3--3--3----3--3--3--3----3-----3--3----3--5--5--5-------------|
e---1--1--1--1----1--1--1--1----1-----3--3----3--3--3--3-------------|


gitara I.
e--------------------------------------------------------------8-----|
h--------------------------------------------------------------11b13-|
g--10-10-10-10----10-10-10-10---10----12-12--12-12-12-12-----9-x-----|
d--10-10-10-10----10-10-10-10---10----12-12--12-12-12-12-------x-----|
a---8--8--8--8-----8--8--8--8----8----10-10--10-10-10-10-------------|
e--------------------------------------------------------------------|
"dubina mjenja nasa lica"

gitara II.
e--------------------------------------------------------------------|
h--------------------------------------------------------------------|
g--------------------------------------------------------------------|
d---3--3--3--3----3--3--3--3----3-----5--5----5--5--5--5-------------|
a---3--3--3--3----3--3--3--3----3-----3--3----3--5--5--5-------------|
e---1--1--1--1----1--1--1--1----1-----3--3----3--3--3--3-------------|



gitara I.
e--------------------------------------------------------------8-----|
h--------------------------------------------------------------11b13-|
g--10-10-10-10----10-10-10-10---10----12-12--12-12-12-12-----9-x-----|
d--10-10-10-10----10-10-10-10---10----12-12--12-12-12-12-------x-----|
a---8--8--8--8-----8--8--8--8----8----10-10--10-10-10-10-------------|
e--------------------------------------------------------------------|
"dok tonemo"

gitara II.
e--------------------------------------------------------------------|
h--------------------------------------------------------------------|
g--------------------------------------------------------------------|
d---3--3--3--3----3--3--3--3----3-----5--5----5--5--5--5-------------|
a---3--3--3--3----3--3--3--3----3-----3--3----3--5--5--5-------------|
e---1--1--1--1----1--1--1--1----1-----3--3----3--3--3--3-------------|



gitara I.
e--------------------------------------------------------------------|
h--------------------------------------------------------------------|
g--10-10-10-10---10-10-10-10---10----12--12-------12--12-------------|
d--10-10-10-10---10-10-10-10---10----12--12-------12--12-------------|
a---8--8--8--8----8--8--8--8----8----10--10-------10--10-------------|
e--------------------------------------------------------------------|
"na slano dno od suza"

gitara II.
e--------------------------------------------------------------------|
h--------------------------------------------------------------------|
g--------------------------------------------------------------------|
d---3--3--3--3----3--3--3--3----3----5---5---------5--5--------------|
a---3--3--3--3----3--3--3--3----3----3---3---------5--5--------------|
e---1--1--1--1----1--1--1--1----1----3---3---------3--3--------------|



gitara I (ritam)
e------------------------------------------------------------0-----------|
h--------0----------------0----------------1---------------3------3------|
g------0------0---------0------0---------0------0--------2----------2----|
d----2----------2-----2----------2-----2----------2----0--------------0--|
a--2--------------2----------------2-3--------------3--------------------|
e-------------------0----------------------------------------------------|
"ti i ja (tonemo)    ti i ja"

gitara II (solo)
e-----------------------------------------------------10h12p10-----------|
h-s17~(hold)-----------------------12-15~(hold)-----12---------15~(hold)-|
g------------------------------------------------------------------------|
d------------------------------------------------------------------------|
a------------------------------------------------------------------------|
e------------------------------------------------------------------------|



gitara I (ritam)
e------------------------------------------------------------0------------------|
h--------0----------------0----------------1---------------3------3-------------|
g------0------0---------0------0---------0------0--------2----------2-----------|
d----2----------2-----2----------2-----2----------2----0--------------0---------|
a--2--------------2----------------2-3--------------3---------------------------|
e-------------------0-----------------------------------------------------------|
"ti i ja (tonemo)    ti i ja (sve se tako dobro zna)"

gitara II (solo)
e-------------------------------------------------------------------------------|
h-12-17~(hold)---------------------12-15~(hold)---12----10~(hold)---------------|
g----------------------------------------------------12---------------12~(hold)-|
d-------------------------------------------------------------------------------|
a-------------------------------------------------------------------------------|
e-------------------------------------------------------------------------------|



teskt:

      A             Em
koje bole i koje ostavljaju trag,
      A             D
koje bole, koje nas bacaju u more
    F    G
da to-ne-mo
  F           G
dubina mijenja nasa lica
     F    G
dok to-ne-mo
     F           G
na slano dno od suza
     Em
ti i ja (tonemo)
      C    D
ti i ja
     Em
ti i ja (tonemo)
      C    D                    G
ti i ja     (sve se tako dobro zna)


gitara I (ritam)
e-------------------------------------------------------------------------|
h--3------------------3-----------------(5)------------------(7)----------|
g--0------------------0------------------5--------------------7-----------|
d--0------------------0------------------5--------------------7-----------|
a--x------------------0------------------3--------------------5-----------|
e--3------------------0---------------------------------------------------|

gitara II (solo)
e----3-2--------3-2-----3-2--------3-2-----3-2--------3-2-----------2--5--|
h--------3----------3-------3----------3-------3----------3---3--5--------|
g--0------------------0------------------0--------------------------------|
d-------------------------------------------------------------------------|
a-------------------------------------------------------------------------|
e-------------------------------------------------------------------------|



gitara I (ritam)
e----------------------------------------------------------------------------|
h--3------------------3-----------------(5)------------------(7)-------------|
g--0------------------0------------------5--------------------7--------------|
d--0------------------0------------------5--------------------7----------2---|
a--x------------------0------------------3--------------------5-----------2--|
e--3------------------0----------------------------------------------------0-|

gitara II (solo)
e----3-2--------3-2-----3-2--------3-2-----3-2--------3-2-----------2--5-----|
h--------3----------3-------3----------3-------3----------3---3--5-----------|
g--0------------------0------------------0-----------------------------------|
d----------------------------------------------------------------------------|
a----------------------------------------------------------------------------|
e----------------------------------------------------------------------------|



SOLO
02:58

-gitara, clean zvuk, svira progrseiju kroz akorde Em, C, G, D.
-pratnja su samo zvukovi klavijatura

    Em           C            G                  D
e----------------------------------------------------------------------------|
h----------------------------------------------------------------------------|
g---------9-------------5--------------12--------------7---------------------|
d-----9-----9-------5------------12-------12-------7-------------------------|
a--s7---7--------s3---3------s10----10----------s5---5-----------------------|
e----------------------------------------------------------------------------|

    Em           C            G                  D
e----------------------------------------------------------------------------|
h----------------------------------------------------------------------------|
g---------9-------------5--------------12--------------7---------------------|
d-----9-----9-------5------------12-------12-------7-------------------------|
a--s7---7--------s3---3------s10----10----------s5---5-----------------------|
e----------------------------------------------------------------------------|


VERSE 3:
03:14

-ova solo struktura svira preko akorda trece kitice, za razliku od prijasnjih
elemenata pjesme "dno od suza" ovdje upotrebiti akusticnu gitaru po mogucnosti
jer ona svira i na originalu, ako ne mozete i s clean zvukom elektricne.

    Em                   C             G             D
e----------------------------------------------------------------------------|
h---7-8p7------------------------------------3------7-8p7--------------------|
g---------7--------------------7-----------0--------------7------------------|
d----------------5s9s5-5-7p5-5-----------0------0----------------------------|
a----------------------------------------------------------------------------|
e--------------------------------------3-------------------------------------|

teskt:

           Em
o, da, ja sanjam samo jedan sat
   C
u jutru koje znaci kraj
     G                     D
jer mirise na rijeci koje bole


CHORUS 3
03:26

gitara I
e-----------------------------------------------------|
h-----------------------------------------------------|
g-----------------------------------------------------|
d--7-7-s7-----------------s---2-2------2-2-2-2-2-2----|
a--7-7-s7-----------------s---2-2------2-2-2-2-2-2----|
e--5-5-s5-----------------s---0-0------0-0-0-0-0-0----|
-primjecujete da je pocetak treceg refrena malo drugaciji.

"koje bole i koje ostavljaju trag"


gitara II
e-----------------------------------------------8-----|
h-----------------------------------------------11b13-|
g-------------10b12~----------------------------x-----|
d--7-~~~----------------------------------------x-----|
a--7-~~~----------------------------------------------|
e--5-~~~----------------------------------------------|



gitara I
e-----------------------------------------------------|
h-----------------------------------------------------|
g-----------------------------7-7-7-7-7-7-7-7-7-7-----|
d--7-7------7-7-7-7-7-7-------5-5-5-5-5-5-5-5-5-5-----|
a--7-7------7-7-7-7-7-7-------5-5-5-5-5-5-5-5-5-5-----|
e--5-5------5-5-5-5-5-5-------------------------------|
"koje bole, koje nas bacaju u more"

gitara II
e-----------------------------------------------------|
h-----------------------------------------------------|
g-------------10b12~----------------------------------|
d-----------------------------------------------------|
a-----------------------------------------------------|
e-----------------------------------------------------|



gitara I.
e--------------------------------------------------------------8-----|
h--------------------------------------------------------------11b13-|
g--10-10-10-10----10-10-10-10---10----12-12--12-12-12-12-----9-x-----|
d--10-10-10-10----10-10-10-10---10----12-12--12-12-12-12-------x-----|
a---8--8--8--8-----8--8--8--8----8----10-10--10-10-10-10-------------|
e--------------------------------------------------------------------|
"da tonemo"

gitara II.
e--------------------------------------------------------------------|
h--------------------------------------------------------------------|
g--------------------------------------------------------------------|
d---3--3--3--3----3--3--3--3----3-----5--5----5--5--5--5-------------|
a---3--3--3--3----3--3--3--3----3-----3--3----3--5--5--5-------------|
e---1--1--1--1----1--1--1--1----1-----3--3----3--3--3--3-------------|



gitara I.
e--------------------------------------------------------------8-----|
h--------------------------------------------------------------11b13-|
g--10-10-10-10----10-10-10-10---10----12-12--12-12-12-12-----9-x-----|
d--10-10-10-10----10-10-10-10---10----12-12--12-12-12-12-------x-----|
a---8--8--8--8-----8--8--8--8----8----10-10--10-10-10-10-------------|
e--------------------------------------------------------------------|
"dubina mjenja nasa lica"

gitara II.
e--------------------------------------------------------------------|
h--------------------------------------------------------------------|
g--------------------------------------------------------------------|
d---3--3--3--3----3--3--3--3----3-----5--5----5--5--5--5-------------|
a---3--3--3--3----3--3--3--3----3-----3--3----3--5--5--5-------------|
e---1--1--1--1----1--1--1--1----1-----3--3----3--3--3--3-------------|



gitara I.
e--------------------------------------------------------------8-----|
h--------------------------------------------------------------11b13-|
g--10-10-10-10----10-10-10-10---10----12-12--12-12-12-12-----9-x-----|
d--10-10-10-10----10-10-10-10---10----12-12--12-12-12-12-------x-----|
a---8--8--8--8-----8--8--8--8----8----10-10--10-10-10-10-------------|
e--------------------------------------------------------------------|
"dok tonemo"

gitara II.
e--------------------------------------------------------------------|
h--------------------------------------------------------------------|
g--------------------------------------------------------------------|
d---3--3--3--3----3--3--3--3----3-----5--5----5--5--5--5-------------|
a---3--3--3--3----3--3--3--3----3-----3--3----3--5--5--5-------------|
e---1--1--1--1----1--1--1--1----1-----3--3----3--3--3--3-------------|



gitara I.
e--------------------------------------------------------------------|
h--------------------------------------------------------------------|
g--10-10-10-10---10-10-10-10---10----12--12-------12--12-------------|
d--10-10-10-10---10-10-10-10---10----12--12-------12--12-------------|
a---8--8--8--8----8--8--8--8----8----10--10-------10--10-------------|
e--------------------------------------------------------------------|
"na slano dno od suza"

gitara II.
e--------------------------------------------------------------------|
h--------------------------------------------------------------------|
g--------------------------------------------------------------------|
d---3--3--3--3----3--3--3--3----3----5---5---------5--5--------------|
a---3--3--3--3----3--3--3--3----3----3---3---------5--5--------------|
e---1--1--1--1----1--1--1--1----1----3---3---------3--3--------------|



gitara I (ritam)
e------------------------------------------------------------0-----------|
h--------0----------------0----------------1---------------3------3------|
g------0------0---------0------0---------0------0--------2----------2----|
d----2----------2-----2----------2-----2----------2----0--------------0--|
a--2--------------2----------------2-3--------------3--------------------|
e-------------------0----------------------------------------------------|
"ti i ja (tonemo) ti i ja"

gitara II (solo)
e-----------------------------------------------------10h12p10-----------|
h-s17~(hold)-----------------------12-15~(hold)-----12---------15~(hold)-|
g------------------------------------------------------------------------|
d------------------------------------------------------------------------|
a------------------------------------------------------------------------|
e------------------------------------------------------------------------|



gitara I (ritam)
e------------------------------------------------------------0------------------|
h--------0----------------0----------------1---------------3------3-------------|
g------0------0---------0------0---------0------0--------2----------2-----------|
d----2----------2-----2----------2-----2----------2----0--------------0---------|
a--2--------------2----------------2-3--------------3---------------------------|
e-------------------0-----------------------------------------------------------|
"ti i ja (tonemo) ti i ja (sve se tako dobro zna)"

gitara II (solo)
e-------------------------------------------------------------------------------|
h-12-17~(hold)---------------------12-15~(hold)---12----10~(hold)---------------|
g----------------------------------------------------12---------------12~(hold)-|
d-------------------------------------------------------------------------------|
a-------------------------------------------------------------------------------|
e-------------------------------------------------------------------------------|

      A             Em
koje bole i koje ostavljaju trag,

      A             D
koje bole, koje nas bacaju u more

    F    G
da to-ne-mo

  F           G
dubina mijenja nasa lica

     F    G
dok to-ne-mo

     F           G
na slano dno od suza

     Em
ti i ja (tonemo)

      C    D
ti i ja

     Em
ti i ja (tonemo)

      C    D                    G
ti i ja     (sve se tako dobro zna)


OUTRO:
04:12

gitara I (ritam)

e-------------------------------------------------------------------------|
h--3------------------3-----------------(5)------------------(7)----------|
g--0------------------0------------------5--------------------7-----------|
d--0------------------0------------------5--------------------7-----------|
a--x------------------0------------------3--------------------5-----------|
e--3------------------0---------------------------------------------------|

gitara II (solo)
e----3-2--------3-2-----3-2--------3-2-----3-2--------3-2-----------2--5--|
h--------3----------3-------3----------3-------3----------3---3--5--------|
g--0------------------0------------------0--------------------------------|
d-------------------------------------------------------------------------|
a-------------------------------------------------------------------------|
e-------------------------------------------------------------------------|

gitara I (ritam)

e----------------------------------------------------------------------3--|
h--3------------------3-----------------(5)------------------(7)-------3--|
g--0------------------0------------------5--------------------7--------0--|
d--0------------------0------------------5--------------------7--------0--|
a--x------------------0------------------3--------------------5--------x--|
e--3------------------0------------------------------------------------3--|

gitara II (solo)
e----3-2--------3-2-----3-2--------3-2-----3-2--------3-2-----------2--5--|
h--------3----------3-------3----------3-------3----------3---3--5--------|
g--0------------------0------------------0--------------------------------|
d-------------------------------------------------------------------------|
a-------------------------------------------------------------------------|
e-------------------------------------------------------------------------|


e-------------------------------------------------------------------------|
h--12---------------------------------------------------------------------|
g--12---------------------------------------------------------------------|
d--12---------------------------------------------------------------------|
a--10---------------------------------------------------------------------|
e-------------------------------------------------------------------------|
-za kraj odsvirajte ovako G akord, zvuk koji se cuje na pjesmi nemozete
odsvirati, taj efekt mozete dobiti recimo prekidanjem ili ometanjem
signala gitare i pojacala. Ponovite zvuk dva puta, zatim FADE OUT.



Kompletan text s akordima:

"DNO OD SUZA"


VERSE 1:
    G
ja trazim jos samo jedan dan
    C                               D
da vratim stvari na pravo mjesto, da griznju savladam
   G                               C
ja sanjam jos samo jedan ples, na tuznom brodu
                 D
bez putnika, mi tonemo u gluhu noc
    G                       C
ja sanjam kako me umivas u jutru koje znaci kraj
      D
jer mirise na rijeci


CHORUS 1:
      A             Em
koje bole i koje ostavljaju trag,
      A             D
koje bole, koje nas bacaju u more
    F    G
da to-ne-mo
  F           G
dubina mijenja nasa lica
     F    G
dok to-ne-mo
     F           G
na slano dno od suza
     Em    C  D
ti i ja


VERSE 2:
    G
ja sanjam jos samo jedan sat,
    C
na pucini bez rijeci
     D
mi slusamo tisinu
       G
koja prica, koja govori za nas
   C
u jutru koje znaci kraj,
     D
jer mirise na rijeci


CHORUS 2:
      A             Em
koje bole i koje ostavljaju trag,
      A             D
koje bole, koje nas bacaju u more
    F    G
da to-ne-mo
  F           G
dubina mijenja nasa lica
     F    G
dok to-ne-mo
     F           G
na slano dno od suza

     Em
ti i ja (tonemo)
      C    D
ti i ja
     Em
ti i ja (tonemo)
      C    D                    G
ti i ja     (sve se tako dobro zna)


VERSE 3:
           Em
o, da, ja sanjam samo jedan sat
   C
u jutru koje znaci kraj
     G                     D
jer mirise na rijeci koje bole


CHORUS 3:
      A             Em
koje bole i koje ostavljaju trag,
      A             D
koje bole, koje nas bacaju u more
    F    G
da to-ne-mo
  F           G
dubina mijenja nasa lica
     F    G
dok to-ne-mo
     F           G
na slano dno od suza

     Em
ti i ja (tonemo)
      C    D
ti i ja
     Em
ti i ja (tonemo)
      C    D                    G
ti i ja     (sve se tako dobro zna)z
Komentari

lovro630 kaže:

Pa da barem svatko hoće ovako detaljno napisati akorde/tablature
Svaka čast

29-06-2015 10:24