Riblja Čorba

Razmazena devojčica

by: djolehammer

Pronađi akord!

Ne znaš kako odsvirati neki od akorda pjesmi Razmazena devojčica? Upiši akord u tražilicu i saznaj!

Traženi akord će se prikazati ovdje

Od istog izvođača

Alo
Pregledano 4569 puta
Pregledano 8285 puta
Pregledano 1290 puta
Pregledano 1559 puta
Pregledano 25488 puta
Trebaš ritam za ovu pjesmu? Pronađi ga ovdje
Akordi/Tabovi:
e|----------------------------------|
h|----------------------------------|
g|-------------x-x-x----------------|
d|--7/9-9-9-9--x-x-x---------x-x-x--|
a|--5/7-7-7-7--x-x-x--5-5-5--x-x-x--|
e|--------------------3-3-3--x-x-x--|

e|----------------------------------|
h|----------------------------------|
g|----------------------------------|
d|-------------x-x-x--5-4---4-------|
a|--5/7-7-7-7--x-x-x------7---5~~---|
e|--3/5-5-5-5--x-x-x----------------|

E                   G
Razmazena devojcica
A
sve sto pozeli dobija
E                          G
cutim, ne mogu da prihvatim
A
da si me volela iz hobija.

Ti ne znas sta ces sa sobom
ni samnom sta bi radila
znam da sam bio igracka
koja ti je dosadila.

Ima na vasaru budala,
novi se lako nabave,
ja sam sve shvatio ozbiljno
tebi je bilo do zabave.

C              D
Ipak sam par meseci
Em
ziveo punim zivotom,
C               D
ono pre toga ne vredi
   Em
ni ono sto bude potom.
Komentari
Još nema komentara