Riblja Čorba

Orfej

by: Jova

Pronađi akord!

Ne znaš kako odsvirati neki od akorda pjesmi Orfej? Upiši akord u tražilicu i saznaj!

Traženi akord će se prikazati ovdje

Od istog izvođača

Pregledano 3735 puta
Pregledano 7093 puta
Pregledano 7273 puta
Pregledano 2385 puta
Pregledano 4785 puta
Trebaš ritam za ovu pjesmu? Pronađi ga ovdje
Akordi/Tabovi:
Intro:8x
     A
E||--13-12----12------------------------------------|
H||--------15----15-13-15-13-12----12----13-12------|
G||-----------------------------14----14-------12~--|
D||-------------------------------------------------|
A||-------------------------------------------------|
E||-------------------------------------------------|

satrofa:
A
Bolje da pricamo o vremenu.
      C             Em
Imali tamo kod tebe snega?
A                     E
Ne mozemo da ostanemo prijatelji
           C             Em
kad sam te voleo vise od svega.

Solo I:
     A                C             Em    A               E
E||---------------------------------------17---19b-19-17--15--13^12-
H||-10~--10-12-9^8^9------------------------------------------------
G||-------------------12----10--12--13\-----------------------------
D||-----------------------------------------------------------------
A||-----------------------------------------------------------------
E||-----------------------------------------------------------------
C              Em
-15~--13--12-12-12^13~~~----|
----------------------------|
----------------------------|
----------------------------|
----------------------------|
----------------------------|

refren:2x
       A               E
Uzmi komade slomljenog srca,
   A         E
na zid okaci trofej.
       C
Bogata zbirka,u njoj je sada
A
izanemeli Orfej.

prelaz:8x
     A
E||--13-12----12------------------------------------|
H||--------15----15-13-15-13-12----12----13-12------|
G||-----------------------------14----14-------12~--|
D||-------------------------------------------------|
A||-------------------------------------------------|
E||-------------------------------------------------|

strofa:
Ma kakvi crni prijatelji!
U samrtnom ropstvu ljubav se koprca.
Za tebe je vazilo,za mene nije.
Daleko od ociju,daleko od srca.

Solo II:
    A                C      Em
E||--------0-0--------------------|
H||-1^2--3------------------------|
G||--------------2^1-----2^1-1~---|
D||------------------4~-----------|
A||-------------------------------|
E||-------------------------------|

Lako se preboli prva ljubav.
Ima vremena da se ispravi greska.
Ne mozamo da ostanemo prijatelji.
Poslednja ljubav je suvise teska.


refren:
Uzmi komade slomljenog srca,
na zid okaci trofej.
Bogata zbirka,u njoj je sada
izanemeli Orfej.
Komentari
Još nema komentara