Babe

Ko me tero (intro i solo)

by: anakonda

Pronađi akord!

Ne znaš kako odsvirati neki od akorda pjesmi Ko me tero (intro i solo)? Upiši akord u tražilicu i saznaj!

Traženi akord će se prikazati ovdje

Od istog izvođača

Pregledano 1936 puta
Pregledano 8804 puta
Pregledano 2646 puta
Pregledano 2017 puta
Pregledano 14262 puta
Trebaš ritam za ovu pjesmu? Pronađi ga ovdje
Akordi/Tabovi:
Uvod:
   Am           G         C           E
E|------5-------------------------------|
H|-----5--5-----------6-6-6p5-5h6p5---5-|
G|----5-----5-----4-7---------------7---|
D|---7--------7-5-----------------------|
A|--7-----------------------------------|
E|-5------------------------------------|
   Am           G         Am
E|------5----------------------------------|
H|-----5--5--------------------------------|
G|----5-----5-------4-5-4----------5-------|
D|---7--------7-5-7-------7----5-7---7-5-7-|
A|--7-----------------------/7-------------|
E|-5---------------------------------------|

Solo:
E|---------------------------------------------------------------|
H|------------------------8--------------------------------------|
G|--------5---5-7-7^9-7^9~~~9^7-5-7-7^9*-7-5^6^5-4-5-5-4h5p4---5-|
D|----5-7---7------------------------------------------------7---|
A|-/7------------------------------------------------------------|
E|---------------------------------------------------------------|

E|--------------------------------------|
H|-/10-/12-/13-/15-/17-17~~~~-17~~~~~~~-|
G|--------------------------------------|
D|--------------------------------------|
A|--------------------------------------|
E|--------------------------------------|

E|-------------------------------------|----------------------|
H|-20^22---20-20^22-20^22---20^22~~~~~-|-20-20^22^20-17----17-|
G|-------------------------------------|----------------19----|
D|-------------------------------------|----------------------|
A|-------------------------------------|----------------------|
E|-------------------------------------|----------------------|

E|-------------------------------------------|
H|-------------------------------------------|
G|-/14-14-12-11------------------------------|
D|--------------15-14-12----*12*-12----------|
A|-----------------------15---------15-12-15-|
E|-------------------------------------------|

E|--------------------------|-5-----------------|-----------|
H|--------------------------|---5---------------|-----------|
G|--------------------------|-----5-----4-5-4---|-----------|
D|----------12----12--14~~~-|-------7-5-------7-|------*7*--|
A|-15-14-15----15-----------|-------------------|--*7*------|
E|--------------------------|-------------------|-----------|
Komentari

NEMESIS3110 kaže:

super svidja mi se,najzad da nadjem negde tab a ne samo evo vam akordi pa svirajte:) e imam malu ispravku, naime, mislim da na pocetku pocine od e a ne od E na 5 pragu. Pozz

18-12-2009 03:08

kinez93 kaže:

Citat
super svidja mi se,najzad da nadjem negde tab a ne samo evo vam akordi pa svirajte e imam malu ispravku, naime, mislim da na pocetku pocine od e a ne od E na 5 pragu. Pozz


Ahahahah od E na petom pragu xD

To se kaze od Tona a (malo a) na E zici :)

16-06-2012 01:59