John Lennon

Cold turkey

by: anakonda

Pronađi akord!

Ne znaš kako odsvirati neki od akorda pjesmi Cold turkey? Upiši akord u tražilicu i saznaj!

Traženi akord će se prikazati ovdje

Od istog izvođača

Pregledano 535 puta
Pregledano 2359 puta
Pregledano 1925 puta
Pregledano 130 puta
Pregledano 2295 puta
Trebaš ritam za ovu pjesmu? Pronađi ga ovdje
Cold turkey by John Lennon

Akordi/Tabovi:
Standard Tuning:


Intro:
e|-------5-----------------------------------------------|
B|--7b8--5--7p5-7b8-5-----5----7\0---5\0---7\0-----------|
G|--7b8-----7p5-7b8-5--7--5----7\0---5\0---7\0---7\0-----|
D|---------------------7-------------------------7\0-----|
A|-------------------------------------------------------|
E|-------------------------------------------------------|


Verse:
e|-----------------------------------|
B|---7b8-7b8-7b8-7b8--5-----5--------|
G|---7b8-7b8-7b8-7b8--5--7--5--------|
D|-----------------------7-----------|
A|-----------------------------------|
E|-----------------------------------|


Chorus:
P.M.................................
e|------------------------------------|
B|------------------------------------|
G|--7-7-7-7-7-7-7-7-7-7-7-7-7-7-7-7---|
D|--7-7-7-7-7-7-7-7-7-7-7-7-7-7-7-7---|
A|--7-7-7-7-7-7-7-7-5-5-5-5-5-5-5-5---|
E|--0-0-0-0-0-0-0-0-0-0-0-0-0-0-0-0---|


After Chorus:
e|-------------------------|
B|---7\0---5\0-------------|
G|---7\0---5\0--7\0---5\0--|
D|--------------7\0---5\0--|
A|-------------------------|
E|-------------------------|


Solo
e|------------------------------------------|
B|------------------------------------------|
G|------------------------------------------|
D|--5b7-5b7---5b7-5b7---7b9-7b9---5b7-5b7---|
A|------------------------------------------|
E|------------------------------------------|
Komentari
Još nema komentara