ZADNJE NA FORUMU
  • Pink Floyd

    Komentirao: Glam Boogie

    Datum: 17-10 21:40

    Odgovora: 400

    Pogleda: 84214

  • *Blic pitanja*

    Komentirao: baaab

    Datum: 17-10 20:36

    Odgovora: 3929

    Pogleda: 444337

  • David Gilmour

    Komentirao: Glam Boogie

    Datum: 17-10 20:19

    Odgovora: 985

    Pogleda: 201452

  • Kakvo pojačalo imate?

    Komentirao: Glam Boogie

    Datum: 17-10 18:47

    Odgovora: 2528

    Pogleda: 560684

  • double stops

    • Datum:   14-04-2009 16:21
    • Autor:   slavac
    • Ispiši   Stranicu
    Double stops je tehnika u kojoj trzamo dvije žice odjednom.
    Vrlo je važno da prilikom vježbanj vježbate sporo i pazite da trzate samo te dvije žice a da bi zvučao onako kako treba važno je trznuti agrsivno i ne pušati da zvoni nego zaštopati zvuk i ponoviti isto kolko vam odgovara.
    .Evo par primjera za vježbu :

    1.
    Akordi/Tabovi:
    E||-------------------------|-------------------------|
    B||--5--7--5---7-5-------|-----5--7--7-7-5------------|
    G||--5--7--5---7-5-------|-----5--7--7-7-5------------|
    D||--------------------7----|-------------------7-----|
    A||-------------------------|-------------------------|
    E||-------------------------|-------------------------|


    2. ajmo dodati malo hamera

    Akordi/Tabovi:
    --3/-5--5--5--7--5-------|--5h-7--5-----------------|
    --3/-5--5--5--7--5-------|--5h-7--5-----------------|
    --------------------7----|-----------5h-7--5--7-----|
    -------------------------|-----------5h-7--5--7--7--|
    -------------------------|--------------------------|
    -------------------------|--------------------------|


    Možete i vi osmisliti neke tako da uzmete dvije note iz neke skale i trzuti ih istovremeno u pentatoskoj dobro zvuče ako trznete dvije žice u istom polju i tako igrajte se malo s njima zvuče savršeno kad se izvježbaju...


    BOK!

    Slični tekstovi

    Pregledano 6476 puta

    » 2 komentara... Dodaj svoj!

    Robert34 kaže:

    kaj

    25-09-2010 19:18

    netko i nešto kaže:

    kako napredno čovječe prva pjesma koju večina nauči je smoke on the water uvod
    to je prva i osnovna lekcija

    27-10-2010 23:46