Led Zeppelin

All my love

by: anakonda

Pronađi akord!

Ne znaš kako odsvirati neki od akorda pjesmi All my love? Upiši akord u tražilicu i saznaj!

Traženi akord će se prikazati ovdje

Od istog izvođača

Pregledano 1909 puta
Pregledano 1282 puta
Pregledano 1935 puta
Pregledano 1700 puta
Pregledano 1654 puta
Trebaš ritam za ovu pjesmu? Pronađi ga ovdje
All my love by Led Zeppelin


Akordi/Tabovi:
Little fill right before plant starts to sing.
E|---------------------------------------------------------------------------||
B|------13----12-----10------------------------------------------------------||
G|---------------------------------------------------------------------------||
D|--/14----/12---/12---------------------------------------------------------||
A|---------------------------------------------------------------------------||
E|---------------------------------------------------------------------------||
During all the main riffs, Page keeps tapping the
guitar slightly muted.  He does this once between
each fill.

E|--8----7-------------------------------------------------------------------||
B|--8----8-------------------------------------------------------------------||
G|--x----x-------------------------------------------------------------------||
D|---------------------------------------------------------------------------||
A|---------------------------------------------------------------------------||
E|---------------------------------------------------------------------------||

fill 1                            Fill 2
E|------------------------------------5--7p5---------------------------------||
B|-6b8(and hold)-----------------------5-----7/5-3-5p3-----------------------||
G|--------------------------------7b9----------------------------------------||
D|---------------------------------------------------------------------------||
A|---------------------------------------------------------------------------||
E|---------------------------------------------------------------------------||

fill 3                           fill 4
E|---------------------------------------------------------------------------||
B|-6b8r6-6b8r6---------------------------------------------------------------||
G|---------------------------------7-7/9-9/7---7-----------------------------||
D|-------------------------------------------7-------------------------------||
A|---------------------------------------------------------------------------||
E|---------------------------------------------------------------------------||

fill 5
E|-------5h7p5---------------------------------------------------------------||
B|-------------7/5-5---------------------------------------------------------||
G|--7b9----------------------------------------------------------------------||
D|---------------------------------------------------------------------------||
A|---------------------------------------------------------------------------||
E|---------------------------------------------------------------------------||

Should I fall out of love, my fire in the night,(fill 1)
To chase a feather in the wind.(fill 2)
Within the glow that weaves a cloak of delight,(fill 3)
There moves a thread that has no end.(fill 2)
For many hours and days that pass ever soon,(fill 1)
The tides have caused the flame to dim.(fill 4)
At last the arm is straight, the hand to the loom,(fill 3)
Is this the end or just begin?(fill 5)


chorus 1
E|---------------------------------------------------------------------------||
B|-15b17-15b17--13-15-15b17-----15-13-15-13h15p13----------------------------||
G|---------------------------------------------------------------------------||
D|---------------------------------------------------------------------------||
A|---------------------------------------------------------------------------||
E|---------------------------------------------------------------------------||


E|---------------------------------------------------------------------------||
B|---------------------------------------------------------------------------||
G|-10-12-12b14-12b14-12-10h12p10---------------------------------------------||
D|---------------------------------------------------------------------------||
A|---------------------------------------------------------------------------||
E|---------------------------------------------------------------------------||


E|---------------------------------------------------------------------------||
B|-/17----15-13-15-15b17-15-13h15p13-13h15p13--13h15p13----------------------||
G|---------------------------------------------------------------------------||
D|---------------------------------------------------------------------------||
A|---------------------------------------------------------------------------||
E|---------------------------------------------------------------------------||


E|---------------------------------------------------------------------------||
B|---------------------------------------------------------------------------||
G|-10-12-12b14-12b14---------------------------------------------------------||
D|---------------------------------------------------------------------------||
A|---------------------------------------------------------------------------||
E|---------------------------------------------------------------------------||
end of chorus 1

fill 6                              fill 7
E|-----5--7p5----7h5---------------------------------------------------------||
B|------5-----6p5---6p5------------------------------------------------------||
G|-7b9--------------------------------7-7/9\7/9\7----------------------------||
D|----------------------------------7----------------------------------------||
A|---------------------------------------------------------------------------||
E|---------------------------------------------------------------------------||

The cup is raised the toast is made yet again,(fill 3)
One voice is clear above the din.(fill 6)
Proud Arian, one word my will to sustain,(fill 1)
For me the cloth once more to spin, oh.(fill 7)

Chorus 2
E|---------------------------------------------------------------------------||
B|-/17--15-13-15-15b17-15-15-13h15p13-13h15p13--13h15p13---------------------||
G|---------------------------------------------------------------------------||
D|---------------------------------------------------------------------------||
A|---------------------------------------------------------------------------||
E|---------------------------------------------------------------------------||


E|---------------------------------------------------------------------------||
B|-10-12-12b14-12b14---------------------------------------------------------||
G|---------------------------------------------------------------------------||
D|---------------------------------------------------------------------------||
A|---------------------------------------------------------------------------||
E|---------------------------------------------------------------------------||


E|---------------------------------------------------------------------------||
B|-15b17---15-13-15-15b17--15-13-15-13h15p13--13h15p13-----------------------||
G|---------------------------------------------------------------------------||
D|---------------------------------------------------------------------------||
A|---------------------------------------------------------------------------||
E|---------------------------------------------------------------------------||


E|---------------------------------------------------------------------------||
B|---------------------------------------------------------------------------||
G|-10-12-12b14-12b14---------------------------------------------------------||
D|---------------------------------------------------------------------------||
A|---------------------------------------------------------------------------||
E|---------------------------------------------------------------------------||
end of chorus 2

This next part is hard to get the timing right.
Its the part right after the 2nd chorus.

1st riff                          2nd riff
E|---------------------------------------------------------------------------||
B|---------------------------------10b11r10----------------------------------||
G|------5-5-7b9-7-5-------------------------7p5-7p5--5vv---------------------||
D|---5h7-7-------------------------------------7---7-------------------------||
A|-/7------------------------------------------------------------------------||
E|---------------------------------------------------------------------------||
3rd riff
E|---------------------------------------------------------------------------||
B|-8b10r8--6b8r6--10b12r10--8b10r8--6b8r6--4/5-------------------------------||
G|--------------------------------------------0-7b9r7-0----------------------||
D|---------------------------------------------------------------------------||
A|---------------------------------------------------------------------------||
E|---------------------------------------------------------------------------||

Then it goes into the keyboard trumpet solo.
Page just keeps doing the little short popping things
I showed you earlier.

Now it goes to the keyboard with a riff behind it.

E|---------------------------------------------------------------------------||
B|-----12-13-15b17-15b17-15-15----13-12---12---------------------------------||
G|-/14---------------------------------14---14-12----------------------------||
D|---------------------------------------------------------------------------||
A|---------------------------------------------------------------------------||
E|---------------------------------------------------------------------------||

E|---------------------------------------------------------------------------||
B|-----12-13-15b17-15b17-15-15----13-12---12---------------------------------||
G|-/14---------------------------------14---14-12----------------------------||
D|---------------------------------------------------------------------------||
A|---------------------------------------------------------------------------||
E|---------------------------------------------------------------------------||

E|---------------------------------------------------------------------------||
B|-----12-13-15b17-15b17-15-15----13-12---12---------------------------------||
G|-/14---------------------------------14---14-12----------------------------||
D|---------------------------------------------------------------------------||
A|---------------------------------------------------------------------------||
E|---------------------------------------------------------------------------||

E|---------------------------------------------------------------------------||
B|-----12-13-15b17-15b17-15-15----13-12---------10--12p10----10h17-----------||
G|-/14---------------------------------14---------9------10p9-----10p9-------||
D|----------------------------------------12b14------------------------------||
A|---------------------------------------------------------------------------||
E|---------------------------------------------------------------------------||

now back to the hard timing part but with diff. riffs


4th riff                           
E|---------------5-----------------------------------------------------------||
B|----------------5-8p5--8b10r8----------------------------------------------||
G|----5-5-7b9-77-------------------------------------------------------------||
D|-5h7-7---------------------------------------------------------------------||
A|---------------------------------------------------------------------------||
E|---------------------------------------------------------------------------||

5th riff
E|------5-5------------------------------------------------------------------||
B|-----5-7--5b7r5-7-7p5------------------------------------------------------||
G|-7b9-----------------------------------------------------------------------||
D|---------------------------------------------------------------------------||
A|---------------------------------------------------------------------------||
E|---------------------------------------------------------------------------||

6th riff
E|---------------------------------------------------------------------------||
B|-7b9r7--8b10r8--6b8r6--10b12r10--8b10r8--6b8r6--4/5------------------------||
G|---------------------------------------------------0-7b9r7-0---------------||
D|---------------------------------------------------------------------------||
A|---------------------------------------------------------------------------||
E|---------------------------------------------------------------------------||

back to verse riffs

fill 8
E|---------------------------------------------------------------------------||
B|-5-------------------------------------------------------------------------||
G|---7-7---7b9r7-7b9r7-------------------------------------------------------||
D|-------7-------------------------------------------------------------------||
A|---------------------------------------------------------------------------||
E|---------------------------------------------------------------------------||

Yours is the cloth, mine is the hand that sews time, (fill 3)
His is the voice that lies within.(fill 6)
Ours is the fire all the warmth we can find,(fill 1)
He is a feather in the wind, oh.(fill 8)

final chorus


E|---------------------------------------------------------------------------||
B|-7b9r7-15-13-15-15b17-15-15-13h15p13-13h15p13--13h15p13--------------------||
G|---------------------------------------------------------------------------||
D|---------------------------------------------------------------------------||
A|---------------------------------------------------------------------------||
E|---------------------------------------------------------------------------||

E|---------------------------------------------------------------------------||
B|-10-12-12b14-12b14---------------------------------------------------------||
G|---------------------------------------------------------------------------||
D|---------------------------------------------------------------------------||
A|---------------------------------------------------------------------------||
E|---------------------------------------------------------------------------||

E|---------------------------------------------------------------------------||
B|-----12-13-15b17-15b17-15-15----13-12---12---------------------------------||
G|-/14---------------------------------14---14-12----------------------------||
D|---------------------------------------------------------------------------||
A|---------------------------------------------------------------------------||
E|---------------------------------------------------------------------------||

E|---------------------------------------------------------------------------||
B|-----12-13-15b17-15b17-15-15----13-12---------10--12p10----10h17-----------||
G|-/14---------------------------------14---------9------10p9-----10p9-------||
D|----------------------------------------12b14------------------------------||
A|---------------------------------------------------------------------------||
E|---------------------------------------------------------------------------||

now you do the same thing as that just two frets higher.
You have just learned all of my love by led zeppelin.
Enjoy!
Komentari
Još nema komentara