ZADNJE NA FORUMU
  • Buđet mikrofon.

    Komentirao: SteveP

    Datum: 23-10 23:19

    Odgovora: 38

    Pogleda: 909

  • *Blic pitanja*

    Komentirao: Strat04

    Datum: 23-10 21:47

    Odgovora: 3777

    Pogleda: 348115

  • Zamjene...

    Komentirao: Ad_slammer

    Datum: 22-10 15:37

    Odgovora: 967

    Pogleda: 102438

  • Niveta lick

    • Datum:   23-03-2009 20:55
    • Autor:  
    • Ispiši   Stranicu
    Akordi/Tabovi:
    e|----------------------------------------------------------------|
    B|-----------------------18-18p15----------15-18p15---------------|
    G|-15-17bp15----------15----------17-15-17----------17-15-17------|
    D|-----------17-15-17----------------------------------------15-17|
    A|----------------------------------------------------------------|
    E|----------------------------------------------------------------|

    e|-------------18-15---------------------------------------------|
    B|-------18-15-------18-15-18-18bp15-----------------------------|
    G|-15-15-----------------------------17-15-17-------------15-15--|
    D|--------------------------------------------15-17-15-17--------|
    A|---------------------------------------------------------------|
    E|---------------------------------------------------------------|

    e|-18-17----18-17------------------------------------------------|
    B|-------15-------15-18/20-20-18---------------------------------|
    G|-------------------------------17-19-19h20p19------------------|
    D|----------------------------------------------20-19-17---------|
    A|---------------------------------------------------------------|
    E|---------------------------------------------------------------|




    evo još jedno moje neritmičko dijelo :) :
    http://www.box.net/shared/nnc08lliaq

    Slični tekstovi

    Pregledano 3916 puta
    Pregledano 2574 puta
    Pregledano 10990 puta
    Pregledano 5203 puta
    Pregledano 4475 puta

    » 1 komentara... Dodaj svoj!

    problem child kaže:

    predobar ti je ovaj drugi. jel mos pliz stavit tabove

    17-12-2010 22:04