Plavi Orkestar

Suada

by: stagg s 300

Pronađi akord!

Ne znaš kako odsvirati neki od akorda pjesmi Suada? Upiši akord u tražilicu i saznaj!

Traženi akord će se prikazati ovdje

Od istog izvođača

Pregledano 14563 puta
Pregledano 39196 puta
Pregledano 103256 puta
Pregledano 57810 puta
Pregledano 11848 puta
Trebaš ritam za ovu pjesmu? Pronađi ga ovdje
Akordi/Tabovi:
e-0---2--2--2--0-
H---1--4--1--3--3--3--1--1--0---0--1--3--1--0-
G--2--2--2--2--2--2--2-
D
A
E


e--0
H---3--1--0--1--0-
G
D
A
E


AM
Ti si meni sve ti mi daješ sve
DM        E   AM    E  AM
i kad tebe nema teško mi je

DM     E      AM
Ako te ikad budu pitali
DM         E     AM
gdje li su sada oni dani svi
DM     E     AM                                                     
samo sa suzama u očima
DM       E        AM
Plačem jer nisi moja jedina

DM  E AM  F  DM       E     AM     A
Suada,Suada,dali si ikad mene voljela,hej
DM  E AM  F  DM       E     AM  E  AM   
Suada,Suada,dali si ikad mene voljela
Komentari

toni996 kaže:

pjesma je preodlična samo me malo buni ovaj početak ap ako bi mogla kakva video lekcija
hvala

10-03-2011 22:59

Kirk22 kaže:

Može pomoć ritam?

23-02-2014 18:46

XSARA kaže:

Traži "ska rhythm"...
Evo ti jedna lekcija, do 2. minute uglavnom puno priča, dalje ćeš vidjeti....(suada je malo sporija , je li...)
http://www.youtube.com/watch?v=Pd7wdmi6mSo

23-02-2014 20:53

Kirk22 kaže:

a jel ima neki lakši

23-02-2014 22:07

XSARA kaže:

Ima, bečki valcer.... ali mislim da ne paše uz Suadu....

24-02-2014 00:07

klavijaturista11 kaže:

Ja imam neki tex-mex rhythm,onaj neki vestern ritam i bluegras ako imate dobro pase, hvala za akorde

19-11-2014 20:20

padona kaže:

Evo uvod pravilno tabiran,

Akordi/Tabovi:
e-|---------0--22222-0---------------------------------|-
B-|-------1------------4-1--33333-1-0-0---0-13101310---|-
G-|-22222-------------------------------2------------2-|-
D-|----------------------------------------------------|-
A-|----------------------------------------------------|-
E-|----------------------------------------------------|-

06-12-2015 21:12

Panzer259 kaže:

Akordi/Tabovi:
Ako već postavljaš javno onda postavi cijeli intro.

Suada-intro

E---------0-------|----|------------|------------|
H-----2-3---3-2---|----|------------|------------|
G-2-3-----------2-|-2--|------------|------------|
D-----------------|----|------------|------------|
A-----------------|----|-0---0------|-0---0------|
E-----------------|----|---0--0-2-4-|---0--0-2-4-|

E|:--------0-|-2222-2-0----|-----------------|
H|:-------1--|---------4-1-|-3333-3-1-1------|
G|:-2222-2---|-------------|-----------4-2-4-|
D|:----------|-------------|-----------------|
A|:----------|-------------|-----------------|
E|:----------|-------------|-----------------|

               
|-----------------|--:|-0------|
|-1331-1----------|--:|--1--1--|
|-------442-2-----|--:|---2--2-|
|-----------------|--:|--------|
|-----------------|--:|--------|
|-----------------|--:|--------|

07-12-2015 15:55