Neno Belan

S Mure Na More Jadransko

by: V.Kreslin?

Pronađi akord!

Ne znaš kako odsvirati neki od akorda pjesmi S Mure Na More Jadransko? Upiši akord u tražilicu i saznaj!

Traženi akord će se prikazati ovdje

Od istog izvođača

Pregledano 24211 puta
Pregledano 2857 puta
Pregledano 21043 puta
Pregledano 17157 puta
Pregledano 800 puta
Trebaš ritam za ovu pjesmu? Pronađi ga ovdje
Akordi/Tabovi:
Vlado Kreslin& Neno Belan

S Mure na more Jadransko
========================================================

Intro
   E         C#m       A         H           E
e|-9-7--------------------------------------------|
B|------9----7---------9-7---------7-10-9--7------|
G|-------------9--6---------9--6-9-----------9----|  -- 2x
D|------------------------------------------------|
A|------------------------------------------------|
E|------------------------------------------------|
         
E     C#m     A   H
Tmuran dan,snen  običan,       
E                    C#m   
I jutro pospano onako očito
A       H        E
bolje da nije ni svanulo
E     C#m              A  H               
Bivši ljudi, lica bez osmjeha,koji još
E               C#m
postoji samo na reklamama                       
          A       H                                       
sve manje viceva svijet ide
  E     
dovraga(svijet ide dovraga)

E            H         F#m         A
Al kad dođeš ti moje se nebo razbistri
      E     H         F#m         A
ko da letim tad ja sam sebi opet lijep i mlad
       E     H      F#m          A
Al kad dođeš ti nestanu svi moji oblaci
       E     H         F#m            A         E
sve je nevažno s Mure ko da gledam more Jadransko

   E         C#m       A         H           E
e|-9-7--------------------------------------------|
B|------9----7---------9-7---------7-10-9--7------|
G|-------------9--6---------9--6-9-----------9----|  -- 2x
D|------------------------------------------------|
A|------------------------------------------------|
E|------------------------------------------------|
         
E     C#m          A   H
Tužne misli,teška sjećanja     
        E               C#m           
gorke spoznaje,osjećaj prolaznosti
A         H                   A     
najveći problem sami sebi smo mii....             

(solo-dodati terce)
   E               H             F#m           A             E
e|-4---4---4-2-2-----------------------------2--4-----5---4-2-----|
B|--------------4-----4---4-2-2-5-----5---5------------------5----|
G|----------------------------------------------------------------|
D|----------------------------------------------------------------|
A|----------------------------------------------------------------|
E|----------------------------------------------------------------|

  E               H             F#m           A             E
e|4---4---4-2-2-----------------------------2--4-----5---4-2------|
B|-------------4-----4---4-2-2-5-----5---5------------------5-----|
G|----------------------------------------------------------------|
D|----------------------------------------------------------------|
A|----------------------------------------------------------------|
E|----------------------------------------------------------------|

E            H         F#m   A
Al kad dođeš ti moje se nebo razbistri
      E     H         F#m         A
ko da letim tad ja sam sebi opet lijep i mlad   
       E     H      F#m          A
Al kad dođeš ti nestanu svi moji oblaci
       E     H         F#m            A         E
sve je nevažno s Mure ko da gledam more Jadransko
E            H         F#m   A
Al kad dođeš ti moje se nebo razbistri 
       E     H         F#m            A         E
sve je nevažno s Mure ko da gledam more Jadransko


(malo galebovi ...još malo solo gitara...more Jadransko..)
Komentari
Još nema komentara