Bajaga

Vesela Pesma

by: fallen_angel

Pronađi akord!

Ne znaš kako odsvirati neki od akorda pjesmi Vesela Pesma? Upiši akord u tražilicu i saznaj!

Traženi akord će se prikazati ovdje

Od istog izvođača

Pregledano 298560 puta
Pregledano 4153 puta
Pregledano 5690 puta
Pregledano 5460 puta
Pregledano 32388 puta
Trebaš ritam za ovu pjesmu? Pronađi ga ovdje
Akordi/Tabovi:
 

           Bajaga
       -vesela pesma-


E||------8-------------------------------------|
B||--8--------8----10--10--8--8----------------|
G||------------------------------10--10--9--9--|
D||--------------------------------------------|
A||--------------------------------------------|
E||--------------------------------------------|

                                                                       
E||--------------------------------|
B||--------------------------------|
G||--10--10--9----9--7--7----------|
D||------------------------10--10--|
A||--------------------------------|
E||--------------------------------|

                                                                     
E||-------------------------------------------||
B||-------------------------------------------||
G||--7--7-------------------------------------|| 2x
D||--------10--10--9--9--10--10------7--------||
A||---------------------------------------10--||
E||-------------------------------------------||


C                     G          C             
Kako sam tuzan kad se setim moja jedina.
                  G         C
koliko noci pored mene nisi spavala
tuznog detinjstva svoga odmah sam se setio,
tuzan sam bio a da nisam ni primetio.
 
predrefren>
 
C                 F       C
Sijaju zvezde kao oci konobarice
                     G          C
Da si bar ovde pa da dodju i drugarice
niz moje grlo klizi ljuta prepecenica
neka me slozi kao slozena recenica
 
 
refren>
C                 G             
Ja moram da pijem da zaboravim
C                       G
Ja ne smem trezan tu da boravim           
Komentari

SamoYamahaF370BL kaže:

25-07-2010 16:54

Markosmiljaaa kaže:

Ja mislim da ide C-F-C-G :)

22-10-2010 19:24

aleks13 kaže:

C F C
E||------8-------------------------------------|
B||--8--------8----10--10--8--8----------------|
G||------------------------------10--10--9--9--|
D||--------------------------------------------|
A||--------------------------------------------|
E||--------------------------------------------|

G C
E||--------------------------------|
B||--------------------------------|
G||--10--10--9----9--7--7----------|
D||------------------------10--10--|
A||--------------------------------|
E||--------------------------------|

G C G
E||-------------------------------------------||
B||-------------------------------------------||
G||--7--7-------------------------------------|| 2x
D||--------10--10--9--9--10--10------7--------||
A||---------------------------------------10--||
E||-------------------------------------------||

C F C
Kako sam tuzan kad se setim moja jedina.
G C
koliko noci pored mene nisi spavala
tuznog detinjstva svoga odmah sam se setio,
tuzan sam bio a da nisam ni primetio.

predrefren>

C F C
Sijaju zvezde kao oci konobarice
G C
Da si bar ovde pa da dodju i drugarice
niz moje grlo klizi ljuta prepecenica
neka me slozi kao slozena recenica


refren>
C F
Ja moram da pijem da zaboravim
C G
Ja ne smem trezan tu da boravim

Prv pat simnuvam pesna od internet...mene mi zvuci vaka...mezebi ne e...

06-11-2010 03:54

LoLa kaže:

Pa zar i ovo triba ispravljat!!!!!!!

C G
Kako sam tuzan kad se setim moja jedina.
C G
koliko noci pored mene nisi spavala
tuznog detinjstva svoga odmah sam se setio,
tuzan sam bio a da nisam ni primetio.

30-01-2012 10:58

LoLa kaže:

Akordi/Tabovi:
Zar i ovo triba ispravljat!!!!!

C                     G                       
Kako sam tuzan kad se setim moja jedina.
C                  G         
koliko noci pored mene nisi spavala

30-01-2012 11:00

DM1908 kaže:

ritam??

31-10-2015 06:59